ISO-10303-21;
HEADER;
FILE_DESCRIPTION (( 'STEP AP203' ),
    '1' );
FILE_NAME ('TTN047594-E0W.STEP',
    '2019-05-30T15:04:32',
    ( '' ),
    ( '' ),
    'SwSTEP 2.0',
    'SolidWorks 2018',
    '' );
FILE_SCHEMA (( 'CONFIG_CONTROL_DESIGN' ));
ENDSEC;

DATA;
#1 = AXIS2_PLACEMENT_3D ( 'NONE', #66, #217, #229 ) ;
#2 = APPROVAL_ROLE ( '' ) ;
#3 = AXIS2_PLACEMENT_3D ( 'NONE', #179, #102, #74 ) ;
#4 = CARTESIAN_POINT ( 'NONE',  ( 1.555301434917136263E-15, -12.69999999999996199, 1.054727035209035879 ) ) ;
#5 = ORIENTED_EDGE ( 'NONE', *, *, #139, .F. ) ;
#6 = ORIENTED_EDGE ( 'NONE', *, *, #274, .T. ) ;
#7 = ORIENTED_EDGE ( 'NONE', *, *, #15, .F. ) ;
#8 = DATE_TIME_ROLE ( 'creation_date' ) ;
#9 = SPHERICAL_SURFACE ( 'NONE', #175, 105.2000000000001592 ) ;
#10 = ORIENTED_EDGE ( 'NONE', *, *, #131, .F. ) ;
#11 = CIRCLE ( 'NONE', #201, 12.49999999999997868 ) ;
#12 = AXIS2_PLACEMENT_3D ( 'NONE', #299, #277, #85 ) ;
#13 = DIRECTION ( 'NONE',  ( -0.0000000000000000000, -6.349078012596855731E-15, -1.000000000000000000 ) ) ;
#14 = CARTESIAN_POINT ( 'NONE',  ( 0.0000000000000000000, 1.269815602519908479E-15, -1.799999999999919220 ) ) ;
#15 = EDGE_CURVE ( 'NONE', #176, #193, #69, .T. ) ;
#16 = APPROVAL_PERSON_ORGANIZATION ( #68, #281, #2 ) ;
#17 = FACE_OUTER_BOUND ( 'NONE', #141, .T. ) ;
#18 = DATE_AND_TIME ( #70, #271 ) ;
#19 = PLANE ( 'NONE',  #295 ) ;
#20 = DIRECTION ( 'NONE',  ( 0.0000000000000000000, -0.7071067811865384689, 0.7071067811865565655 ) ) ;
#21 = ORIENTED_EDGE ( 'NONE', *, *, #72, .F. ) ;
#22 = DIRECTION ( 'NONE',  ( 0.0000000000000000000, 1.000000000000000000, -6.351546585269422287E-15 ) ) ;
#23 = CARTESIAN_POINT ( 'NONE',  ( 0.0000000000000000000, -12.50000000000000000, -1.999999999999841238 ) ) ;
#24 = DIRECTION ( 'NONE',  ( 0.0000000000000000000, 1.000000000000000000, -6.349087922075125010E-15 ) ) ;
#25 = APPROVAL_PERSON_ORGANIZATION ( #159, #135, #119 ) ;
#26 = ADVANCED_FACE ( 'NONE', ( #199 ), #9, .T. ) ;
#27 = CARTESIAN_POINT ( 'NONE',  ( 0.0000000000000000000, 1.939470025373038530E-14, 1.054727035208955277 ) ) ;
#28 = VECTOR ( 'NONE', #34, 1000.000000000000000 ) ;
#29 = UNCERTAINTY_MEASURE_WITH_UNIT (LENGTH_MEASURE( 1.000000000000000082E-05 ), #238, 'distance_accuracy_value', 'NONE');
#30 = MECHANICAL_CONTEXT ( 'NONE', #259, 'mechanical' ) ;
#31 = PERSON_AND_ORGANIZATION_ROLE ( 'design_supplier' ) ;
#32 = CALENDAR_DATE ( 2019, 30, 5 ) ;
#33 = CIRCLE ( 'NONE', #285, 12.49999999999997868 ) ;
#34 = DIRECTION ( 'NONE',  ( -0.0000000000000000000, 3.061515884555943146E-16, -1.000000000000000000 ) ) ;
#35 = MANIFOLD_SOLID_BREP ( 'TTN047595-1-solid1', #225 ) ;
#36 = APPROVAL_DATE_TIME ( #278, #125 ) ;
#37 = CARTESIAN_POINT ( 'NONE',  ( 0.0000000000000000000, 1.939470025373038530E-14, 1.054727035208955277 ) ) ;
#38 = CC_DESIGN_PERSON_AND_ORGANIZATION_ASSIGNMENT ( #149, #64, ( #82 ) ) ;
#39 = LINE ( 'NONE', #254, #140 ) ;
#40 = DIRECTION ( 'NONE',  ( 0.0000000000000000000, 1.000000000000000000, -6.351546585269422287E-15 ) ) ;
#41 = CARTESIAN_POINT ( 'NONE',  ( 0.0000000000000000000, 5.286661581538453620E-28, -1.999999999999920730 ) ) ;
#42 = APPROVAL_PERSON_ORGANIZATION ( #177, #125, #260 ) ;
#43 = AXIS2_PLACEMENT_3D ( 'NONE', #203, #204, #181 ) ;
#44 =( GEOMETRIC_REPRESENTATION_CONTEXT ( 3 ) GLOBAL_UNCERTAINTY_ASSIGNED_CONTEXT ( ( #29 ) ) GLOBAL_UNIT_ASSIGNED_CONTEXT ( ( #238, #171, #236 ) ) REPRESENTATION_CONTEXT ( 'NONE', 'WORKASPACE' ) );
#45 = ORIENTED_EDGE ( 'NONE', *, *, #222, .T. ) ;
#46 = ADVANCED_FACE ( 'NONE', ( #129 ), #120, .T. ) ;
#47 = APPLICATION_PROTOCOL_DEFINITION ( 'international standard', 'config_control_design', 1994, #117 ) ;
#48 = ORIENTED_EDGE ( 'NONE', *, *, #241, .F. ) ;
#49 = AXIS2_PLACEMENT_3D ( 'NONE', #27, #300, #22 ) ;
#50 = PERSON_AND_ORGANIZATION ( #270, #220 ) ;
#51 = CARTESIAN_POINT ( 'NONE',  ( 0.0000000000000000000, 1.251302772335701902E-14, -103.2000000000001876 ) ) ;
#52 = CIRCLE ( 'NONE', #251, 12.69999999999999929 ) ;
#53 = DIRECTION ( 'NONE',  ( -0.0000000000000000000, -6.349078012596855731E-15, -1.000000000000000000 ) ) ;
#54 = AXIS2_PLACEMENT_3D ( 'NONE', #77, #183, #107 ) ;
#55 = CC_DESIGN_SECURITY_CLASSIFICATION ( #82, ( #250 ) ) ;
#56 = ORIENTED_EDGE ( 'NONE', *, *, #15, .T. ) ;
#57 = AXIS2_PLACEMENT_3D ( 'NONE', #283, #146, #216 ) ;
#58 = DIRECTION ( 'NONE',  ( 0.0000000000000000000, 1.000000000000000000, 3.073328992872295874E-16 ) ) ;
#59 = DIRECTION ( 'NONE',  ( 8.659560562354877391E-17, 0.7071067811865473507, 0.7071067811865477948 ) ) ;
#60 = ADVANCED_FACE ( 'NONE', ( #157 ), #90, .T. ) ;
#61 = EDGE_LOOP ( 'NONE', ( #5, #45, #158, #163 ) ) ;
#62 = CIRCLE ( 'NONE', #49, 12.69999999999997975 ) ;
#63 = EDGE_CURVE ( 'NONE', #227, #93, #52, .T. ) ;
#64 = PERSON_AND_ORGANIZATION_ROLE ( 'classification_officer' ) ;
#65 = CARTESIAN_POINT ( 'NONE',  ( 0.0000000000000000000, 8.547752349680193105E-16, -2.000000000000000000 ) ) ;
#66 = CARTESIAN_POINT ( 'NONE',  ( 0.0000000000000000000, 0.0000000000000000000, 0.0000000000000000000 ) ) ;
#67 = APPROVAL_STATUS ( 'not_yet_approved' ) ;
#68 = PERSON_AND_ORGANIZATION ( #270, #220 ) ;
#69 = CIRCLE ( 'NONE', #144, 12.50000000000000000 ) ;
#70 = CALENDAR_DATE ( 2019, 30, 5 ) ;
#71 = ADVANCED_FACE ( 'NONE', ( #207 ), #239, .T. ) ;
#72 = EDGE_CURVE ( 'NONE', #252, #103, #33, .T. ) ;
#73 = EDGE_LOOP ( 'NONE', ( #80, #7, #137, #244 ) ) ;
#74 = DIRECTION ( 'NONE',  ( 0.0000000000000000000, 1.000000000000000000, -6.349087922075125010E-15 ) ) ;
#75 = DIRECTION ( 'NONE',  ( 0.0000000000000000000, 1.000000000000000000, -6.351546585269412032E-15 ) ) ;
#76 = CALENDAR_DATE ( 2019, 30, 5 ) ;
#77 = CARTESIAN_POINT ( 'NONE',  ( 0.0000000000000000000, 2.066451585624974414E-14, 1.254727035208953900 ) ) ;
#78 = DATE_AND_TIME ( #233, #111 ) ;
#79 = EDGE_CURVE ( 'NONE', #287, #209, #224, .T. ) ;
#80 = ORIENTED_EDGE ( 'NONE', *, *, #127, .F. ) ;
#81 = ORIENTED_EDGE ( 'NONE', *, *, #127, .T. ) ;
#82 = SECURITY_CLASSIFICATION ( '', '', #215 ) ;
#83 = CARTESIAN_POINT ( 'NONE',  ( 0.0000000000000000000, 12.49999999999999822, 1.254727035208874630 ) ) ;
#84 = ORIENTED_EDGE ( 'NONE', *, *, #274, .F. ) ;
#85 = DIRECTION ( 'NONE',  ( -1.224646799147353207E-16, 1.000000000000000000, 0.0000000000000000000 ) ) ;
#86 = PERSON_AND_ORGANIZATION ( #270, #220 ) ;
#87 = EDGE_CURVE ( 'NONE', #287, #93, #243, .T. ) ;
#88 = DIRECTION ( 'NONE',  ( 0.0000000000000000000, 1.000000000000000000, 3.073328992872295874E-16 ) ) ;
#89 = ADVANCED_FACE ( 'NONE', ( #205 ), #19, .T. ) ;
#90 = SPHERICAL_SURFACE ( 'NONE', #237, 105.2000000000001592 ) ;
#91 = CALENDAR_DATE ( 2019, 30, 5 ) ;
#92 = PERSON_AND_ORGANIZATION_ROLE ( 'creator' ) ;
#93 = VERTEX_POINT ( 'NONE', #186 ) ;
#94 = ADVANCED_FACE ( 'NONE', ( #245 ), #298, .T. ) ;
#95 = EDGE_CURVE ( 'NONE', #176, #93, #110, .T. ) ;
#96 = ORIENTED_EDGE ( 'NONE', *, *, #109, .T. ) ;
#97 = PRODUCT ( 'TTN047594-E0W', 'TTN047594-E0W', '', ( #30 ) ) ;
#98 = LOCAL_TIME ( 11, 4, 32.00000000000000000, #169 ) ;
#99 = VECTOR ( 'NONE', #20, 1000.000000000000000 ) ;
#100 = EDGE_LOOP ( 'NONE', ( #178, #96, #21 ) ) ;
#101 = CC_DESIGN_PERSON_AND_ORGANIZATION_ASSIGNMENT ( #262, #31, ( #250 ) ) ;
#102 = DIRECTION ( 'NONE',  ( -0.0000000000000000000, -6.349078012596855731E-15, -1.000000000000000000 ) ) ;
#103 = VERTEX_POINT ( 'NONE', #132 ) ;
#104 = ORIENTED_EDGE ( 'NONE', *, *, #87, .F. ) ;
#105 = DIRECTION ( 'NONE',  ( -0.0000000000000000000, -6.349078012596855731E-15, -1.000000000000000000 ) ) ;
#106 = PRODUCT_DEFINITION ( 'UNKNOWN', '', #250, #160 ) ;
#107 = DIRECTION ( 'NONE',  ( 0.0000000000000000000, 1.000000000000000000, -6.349087922075125010E-15 ) ) ;
#108 = VECTOR ( 'NONE', #214, 1000.000000000000114 ) ;
#109 = EDGE_CURVE ( 'NONE', #267, #103, #268, .T. ) ;
#110 = LINE ( 'NONE', #156, #99 ) ;
#111 = LOCAL_TIME ( 11, 4, 32.00000000000000000, #213 ) ;
#112 = CARTESIAN_POINT ( 'NONE',  ( 0.0000000000000000000, 12.70000000000000107, -1.800000000000000044 ) ) ;
#113 = PRODUCT_DEFINITION_SHAPE ( 'NONE', 'NONE',  #106 ) ;
#114 = DIRECTION ( 'NONE',  ( 0.0000000000000000000, 1.000000000000000000, -6.351546585269412032E-15 ) ) ;
#115 = CARTESIAN_POINT ( 'NONE',  ( 1.543054966925665076E-15, 12.50000000000000000, -2.000000000000000000 ) ) ;
#116 = ADVANCED_FACE ( 'NONE', ( #293 ), #210, .T. ) ;
#117 = APPLICATION_CONTEXT ( 'configuration controlled 3d designs of mechanical parts and assemblies' ) ;
#118 = VECTOR ( 'NONE', #59, 999.9999999999998863 ) ;
#119 = APPROVAL_ROLE ( '' ) ;
#120 = CONICAL_SURFACE ( 'NONE', #3, 12.49999999999997868, 0.7853981633974569387 ) ;
#121 = AXIS2_PLACEMENT_3D ( 'NONE', #167, #212, #58 ) ;
#122 = ORIENTED_EDGE ( 'NONE', *, *, #154, .T. ) ;
#123 = SHAPE_DEFINITION_REPRESENTATION ( #113, #284 ) ;
#124 = CIRCLE ( 'NONE', #263, 12.50000000000000000 ) ;
#125 = APPROVAL ( #67, 'UNSPECIFIED' ) ;
#126 = DIRECTION ( 'NONE',  ( 0.0000000000000000000, 1.000000000000000000, 2.638362701105406083E-16 ) ) ;
#127 = EDGE_CURVE ( 'NONE', #193, #227, #257, .T. ) ;
#128 = DIRECTION ( 'NONE',  ( 1.000000000000000000, 0.0000000000000000000, -0.0000000000000000000 ) ) ;
#129 = FACE_OUTER_BOUND ( 'NONE', #61, .T. ) ;
#130 = EDGE_LOOP ( 'NONE', ( #56, #248 ) ) ;
#131 = EDGE_CURVE ( 'NONE', #93, #227, #291, .T. ) ;
#132 = CARTESIAN_POINT ( 'NONE',  ( 1.543054966925662512E-15, -12.49999999999995737, 1.254727035209033392 ) ) ;
#133 = EDGE_LOOP ( 'NONE', ( #147, #294, #134 ) ) ;
#134 = ORIENTED_EDGE ( 'NONE', *, *, #222, .F. ) ;
#135 = APPROVAL ( #232, 'UNSPECIFIED' ) ;
#136 = LINE ( 'NONE', #83, #108 ) ;
#137 = ORIENTED_EDGE ( 'NONE', *, *, #95, .T. ) ;
#138 = CARTESIAN_POINT ( 'NONE',  ( 0.0000000000000000000, 12.49999999999999822, 1.254727035208874630 ) ) ;
#139 = EDGE_CURVE ( 'NONE', #103, #287, #39, .T. ) ;
#140 = VECTOR ( 'NONE', #301, 1000.000000000000114 ) ;
#141 = EDGE_LOOP ( 'NONE', ( #122, #273, #143, #84 ) ) ;
#142 = ADVANCED_FACE ( 'NONE', ( #17 ), #202, .T. ) ;
#143 = ORIENTED_EDGE ( 'NONE', *, *, #63, .F. ) ;
#144 = AXIS2_PLACEMENT_3D ( 'NONE', #152, #13, #269 ) ;
#145 = DIRECTION ( 'NONE',  ( -0.0000000000000000000, -6.349078012596855731E-15, -1.000000000000000000 ) ) ;
#146 = DIRECTION ( 'NONE',  ( -1.000000000000000000, 0.0000000000000000000, 0.0000000000000000000 ) ) ;
#147 = ORIENTED_EDGE ( 'NONE', *, *, #109, .F. ) ;
#148 = LOCAL_TIME ( 11, 4, 32.00000000000000000, #275 ) ;
#149 = PERSON_AND_ORGANIZATION ( #270, #220 ) ;
#150 = EDGE_CURVE ( 'NONE', #252, #209, #136, .T. ) ;
#151 = DIRECTION ( 'NONE',  ( 1.000000000000000000, 0.0000000000000000000, -0.0000000000000000000 ) ) ;
#152 = CARTESIAN_POINT ( 'NONE',  ( 0.0000000000000000000, 5.286661581538453620E-28, -1.999999999999920730 ) ) ;
#153 = CYLINDRICAL_SURFACE ( 'NONE', #258, 12.70000000000000107 ) ;
#154 = EDGE_CURVE ( 'NONE', #209, #287, #62, .T. ) ;
#155 = DIRECTION ( 'NONE',  ( 0.0000000000000000000, 1.000000000000000000, -6.349087922075125010E-15 ) ) ;
#156 = CARTESIAN_POINT ( 'NONE',  ( 0.0000000000000000000, -12.69999999999999751, -1.799999999999838618 ) ) ;
#157 = FACE_OUTER_BOUND ( 'NONE', #100, .T. ) ;
#158 = ORIENTED_EDGE ( 'NONE', *, *, #150, .T. ) ;
#159 = PERSON_AND_ORGANIZATION ( #270, #220 ) ;
#160 = DESIGN_CONTEXT ( 'detailed design', #117, 'design' ) ;
#161 = CARTESIAN_POINT ( 'NONE',  ( 0.0000000000000000000, 1.269815602519908479E-15, -1.799999999999919220 ) ) ;
#162 = CARTESIAN_POINT ( 'NONE',  ( 1.555301434917138433E-15, 12.70000000000000107, -1.800000000000000044 ) ) ;
#163 = ORIENTED_EDGE ( 'NONE', *, *, #79, .F. ) ;
#164 = CARTESIAN_POINT ( 'NONE',  ( 0.0000000000000000000, 2.066451585624974414E-14, 1.254727035208953900 ) ) ;
#165 = COORDINATED_UNIVERSAL_TIME_OFFSET ( 5, 0, .BEHIND. ) ;
#166 = CARTESIAN_POINT ( 'NONE',  ( 0.0000000000000000000, -1.325247721865646185E-14, 1.999999999999974021 ) ) ;
#167 = CARTESIAN_POINT ( 'NONE',  ( 0.0000000000000000000, 8.547752349680193105E-16, -2.000000000000000000 ) ) ;
#168 = PERSON_AND_ORGANIZATION_ROLE ( 'creator' ) ;
#169 = COORDINATED_UNIVERSAL_TIME_OFFSET ( 5, 0, .BEHIND. ) ;
#170 = DATE_TIME_ROLE ( 'classification_date' ) ;
#171 =( NAMED_UNIT ( * ) PLANE_ANGLE_UNIT ( ) SI_UNIT ( $, .RADIAN. ) );
#172 = PRODUCT_RELATED_PRODUCT_CATEGORY ( 'detail', '', ( #97 ) ) ;
#173 = APPLICATION_PROTOCOL_DEFINITION ( 'international standard', 'config_control_design', 1994, #259 ) ;
#174 = APPROVAL_STATUS ( 'not_yet_approved' ) ;
#175 = AXIS2_PLACEMENT_3D ( 'NONE', #51, #128, #126 ) ;
#176 = VERTEX_POINT ( 'NONE', #23 ) ;
#177 = PERSON_AND_ORGANIZATION ( #270, #220 ) ;
#178 = ORIENTED_EDGE ( 'NONE', *, *, #261, .F. ) ;
#179 = CARTESIAN_POINT ( 'NONE',  ( 0.0000000000000000000, 2.066451585624974414E-14, 1.254727035208953900 ) ) ;
#180 = CARTESIAN_POINT ( 'NONE',  ( 1.555301434917138630E-15, -12.70000000000000107, -2.000000000000003997 ) ) ;
#181 = DIRECTION ( 'NONE',  ( 0.0000000000000000000, -1.000000000000000000, 6.351546585269412032E-15 ) ) ;
#182 = DIRECTION ( 'NONE',  ( 0.0000000000000000000, 1.000000000000000000, 3.061515884555943146E-16 ) ) ;
#183 = DIRECTION ( 'NONE',  ( -0.0000000000000000000, -6.349078012596855731E-15, -1.000000000000000000 ) ) ;
#184 = DIRECTION ( 'NONE',  ( -0.0000000000000000000, 3.061515884555943146E-16, -1.000000000000000000 ) ) ;
#185 = APPROVAL_DATE_TIME ( #18, #281 ) ;
#186 = CARTESIAN_POINT ( 'NONE',  ( 1.555301434917138433E-15, -12.69999999999999751, -1.799999999999838618 ) ) ;
#187 = DIRECTION ( 'NONE',  ( -0.0000000000000000000, 3.061515884555943146E-16, -1.000000000000000000 ) ) ;
#188 = EDGE_LOOP ( 'NONE', ( #104, #297, #6, #10 ) ) ;
#189 = CARTESIAN_POINT ( 'NONE',  ( 0.0000000000000000000, 12.69999999999999929, 1.054727035208874453 ) ) ;
#190 = PERSON_AND_ORGANIZATION ( #270, #220 ) ;
#191 = CARTESIAN_POINT ( 'NONE',  ( 0.0000000000000000000, 12.70000000000000107, -1.999999999999996225 ) ) ;
#192 = AXIS2_PLACEMENT_3D ( 'NONE', #37, #249, #40 ) ;
#193 = VERTEX_POINT ( 'NONE', #115 ) ;
#194 = CC_DESIGN_APPROVAL ( #281, ( #250 ) ) ;
#195 = ORIENTED_EDGE ( 'NONE', *, *, #139, .T. ) ;
#196 = DIRECTION ( 'NONE',  ( -0.0000000000000000000, -6.349078012596855731E-15, -1.000000000000000000 ) ) ;
#197 = CC_DESIGN_APPROVAL ( #125, ( #106 ) ) ;
#198 = ORIENTED_EDGE ( 'NONE', *, *, #95, .F. ) ;
#199 = FACE_OUTER_BOUND ( 'NONE', #133, .T. ) ;
#200 = PERSON_AND_ORGANIZATION_ROLE ( 'design_owner' ) ;
#201 = AXIS2_PLACEMENT_3D ( 'NONE', #164, #196, #24 ) ;
#202 = CYLINDRICAL_SURFACE ( 'NONE', #121, 12.70000000000000107 ) ;
#203 = CARTESIAN_POINT ( 'NONE',  ( 0.0000000000000000000, 1.269815602519908479E-15, -1.799999999999919220 ) ) ;
#204 = DIRECTION ( 'NONE',  ( 0.0000000000000000000, 6.349078012596855731E-15, 1.000000000000000000 ) ) ;
#205 = FACE_OUTER_BOUND ( 'NONE', #130, .T. ) ;
#206 = DATE_AND_TIME ( #76, #148 ) ;
#207 = FACE_OUTER_BOUND ( 'NONE', #73, .T. ) ;
#208 = ORIENTED_EDGE ( 'NONE', *, *, #150, .F. ) ;
#209 = VERTEX_POINT ( 'NONE', #189 ) ;
#210 = CONICAL_SURFACE ( 'NONE', #228, 12.69999999999999929, 0.7853981633974418397 ) ;
#211 = DIRECTION ( 'NONE',  ( -0.0000000000000000000, -6.349078012596855731E-15, -1.000000000000000000 ) ) ;
#212 = DIRECTION ( 'NONE',  ( -0.0000000000000000000, 3.061515884555943146E-16, -1.000000000000000000 ) ) ;
#213 = COORDINATED_UNIVERSAL_TIME_OFFSET ( 5, 0, .BEHIND. ) ;
#214 = DIRECTION ( 'NONE',  ( 0.0000000000000000000, 0.7071067811865491270, -0.7071067811865459074 ) ) ;
#215 = SECURITY_CLASSIFICATION_LEVEL ( 'unclassified' ) ;
#216 = DIRECTION ( 'NONE',  ( 0.0000000000000000000, 0.0000000000000000000, 1.000000000000000000 ) ) ;
#217 = DIRECTION ( 'NONE',  ( 0.0000000000000000000, 0.0000000000000000000, 1.000000000000000000 ) ) ;
#218 = DIRECTION ( 'NONE',  ( 0.0000000000000000000, 1.000000000000000000, -6.349087922075113966E-15 ) ) ;
#219 = CC_DESIGN_PERSON_AND_ORGANIZATION_ASSIGNMENT ( #86, #92, ( #106 ) ) ;
#220 = ORGANIZATION ( 'UNSPECIFIED', 'UNSPECIFIED', '' ) ;
#221 = ORIENTED_EDGE ( 'NONE', *, *, #154, .F. ) ;
#222 = EDGE_CURVE ( 'NONE', #103, #252, #11, .T. ) ;
#223 = CC_DESIGN_PERSON_AND_ORGANIZATION_ASSIGNMENT ( #190, #168, ( #250 ) ) ;
#224 = CIRCLE ( 'NONE', #192, 12.69999999999997975 ) ;
#225 = CLOSED_SHELL ( 'NONE', ( #60, #94, #116, #142, #288, #71, #89, #46, #26 ) ) ;
#226 = CIRCLE ( 'NONE', #57, 105.2000000000001592 ) ;
#227 = VERTEX_POINT ( 'NONE', #112 ) ;
#228 = AXIS2_PLACEMENT_3D ( 'NONE', #255, #253, #296 ) ;
#229 = DIRECTION ( 'NONE',  ( 1.000000000000000000, 0.0000000000000000000, 0.0000000000000000000 ) ) ;
#230 = ORIENTED_EDGE ( 'NONE', *, *, #63, .T. ) ;
#231 = FACE_OUTER_BOUND ( 'NONE', #188, .T. ) ;
#232 = APPROVAL_STATUS ( 'not_yet_approved' ) ;
#233 = CALENDAR_DATE ( 2019, 30, 5 ) ;
#234 = CC_DESIGN_DATE_AND_TIME_ASSIGNMENT ( #206, #8, ( #106 ) ) ;
#235 = DIRECTION ( 'NONE',  ( -0.0000000000000000000, 3.061515884555943146E-16, -1.000000000000000000 ) ) ;
#236 =( NAMED_UNIT ( * ) SI_UNIT ( $, .STERADIAN. ) SOLID_ANGLE_UNIT ( ) );
#237 = AXIS2_PLACEMENT_3D ( 'NONE', #290, #151, #266 ) ;
#238 =( LENGTH_UNIT ( ) NAMED_UNIT ( * ) SI_UNIT ( .MILLI., .METRE. ) );
#239 = CONICAL_SURFACE ( 'NONE', #43, 12.69999999999999929, 0.7853981633974418397 ) ;
#240 = DATE_AND_TIME ( #91, #289 ) ;
#241 = EDGE_CURVE ( 'NONE', #193, #176, #124, .T. ) ;
#242 = CC_DESIGN_APPROVAL ( #135, ( #82 ) ) ;
#243 = LINE ( 'NONE', #180, #28 ) ;
#244 = ORIENTED_EDGE ( 'NONE', *, *, #131, .T. ) ;
#245 = FACE_OUTER_BOUND ( 'NONE', #264, .T. ) ;
#246 = AXIS2_PLACEMENT_3D ( 'NONE', #161, #211, #114 ) ;
#247 = CARTESIAN_POINT ( 'NONE',  ( 0.0000000000000000000, 2.066451585624974414E-14, 1.254727035208953900 ) ) ;
#248 = ORIENTED_EDGE ( 'NONE', *, *, #241, .T. ) ;
#249 = DIRECTION ( 'NONE',  ( -0.0000000000000000000, -6.349078012596855731E-15, -1.000000000000000000 ) ) ;
#250 = PRODUCT_DEFINITION_FORMATION_WITH_SPECIFIED_SOURCE ( 'ANY', '', #97, .NOT_KNOWN. ) ;
#251 = AXIS2_PLACEMENT_3D ( 'NONE', #14, #53, #75 ) ;
#252 = VERTEX_POINT ( 'NONE', #138 ) ;
#253 = DIRECTION ( 'NONE',  ( 0.0000000000000000000, 6.349078012596855731E-15, 1.000000000000000000 ) ) ;
#254 = CARTESIAN_POINT ( 'NONE',  ( 1.530808498934188957E-15, -12.49999999999995737, 1.254727035209033392 ) ) ;
#255 = CARTESIAN_POINT ( 'NONE',  ( 0.0000000000000000000, 1.269815602519908479E-15, -1.799999999999919220 ) ) ;
#256 = ORIENTED_EDGE ( 'NONE', *, *, #72, .T. ) ;
#257 = LINE ( 'NONE', #162, #118 ) ;
#258 = AXIS2_PLACEMENT_3D ( 'NONE', #65, #235, #88 ) ;
#259 = APPLICATION_CONTEXT ( 'configuration controlled 3d designs of mechanical parts and assemblies' ) ;
#260 = APPROVAL_ROLE ( '' ) ;
#261 = EDGE_CURVE ( 'NONE', #267, #252, #226, .T. ) ;
#262 = PERSON_AND_ORGANIZATION ( #270, #220 ) ;
#263 = AXIS2_PLACEMENT_3D ( 'NONE', #41, #145, #218 ) ;
#264 = EDGE_LOOP ( 'NONE', ( #256, #195, #221, #208 ) ) ;
#265 = APPROVAL_DATE_TIME ( #240, #135 ) ;
#266 = DIRECTION ( 'NONE',  ( 0.0000000000000000000, 1.000000000000000000, 2.638362701105406083E-16 ) ) ;
#267 = VERTEX_POINT ( 'NONE', #166 ) ;
#268 = CIRCLE ( 'NONE', #12, 105.2000000000001592 ) ;
#269 = DIRECTION ( 'NONE',  ( 0.0000000000000000000, 1.000000000000000000, -6.349087922075113966E-15 ) ) ;
#270 = PERSON ( 'UNSPECIFIED', 'UNSPECIFIED', 'UNSPECIFIED', ('UNSPECIFIED'), ('UNSPECIFIED'), ('UNSPECIFIED') ) ;
#271 = LOCAL_TIME ( 11, 4, 32.00000000000000000, #165 ) ;
#272 = CARTESIAN_POINT ( 'NONE',  ( 0.0000000000000000000, 8.547752349680199021E-16, -2.000000000000001776 ) ) ;
#273 = ORIENTED_EDGE ( 'NONE', *, *, #87, .T. ) ;
#274 = EDGE_CURVE ( 'NONE', #209, #227, #276, .T. ) ;
#275 = COORDINATED_UNIVERSAL_TIME_OFFSET ( 5, 0, .BEHIND. ) ;
#276 = LINE ( 'NONE', #191, #279 ) ;
#277 = DIRECTION ( 'NONE',  ( 1.000000000000000000, 1.224646799147353207E-16, 3.749275628560213616E-32 ) ) ;
#278 = DATE_AND_TIME ( #32, #98 ) ;
#279 = VECTOR ( 'NONE', #187, 1000.000000000000000 ) ;
#280 = EDGE_LOOP ( 'NONE', ( #48, #81, #230, #198 ) ) ;
#281 = APPROVAL ( #174, 'UNSPECIFIED' ) ;
#282 = COORDINATED_UNIVERSAL_TIME_OFFSET ( 5, 0, .BEHIND. ) ;
#283 = CARTESIAN_POINT ( 'NONE',  ( 0.0000000000000000000, 1.251302772335701902E-14, -103.2000000000001876 ) ) ;
#284 = ADVANCED_BREP_SHAPE_REPRESENTATION ( 'TTN047594-E0W', ( #35, #1 ), #44 ) ;
#285 = AXIS2_PLACEMENT_3D ( 'NONE', #247, #105, #155 ) ;
#286 = CC_DESIGN_PERSON_AND_ORGANIZATION_ASSIGNMENT ( #50, #200, ( #97 ) ) ;
#287 = VERTEX_POINT ( 'NONE', #4 ) ;
#288 = ADVANCED_FACE ( 'NONE', ( #231 ), #153, .T. ) ;
#289 = LOCAL_TIME ( 11, 4, 32.00000000000000000, #282 ) ;
#290 = CARTESIAN_POINT ( 'NONE',  ( 0.0000000000000000000, 1.251302772335701902E-14, -103.2000000000001876 ) ) ;
#291 = CIRCLE ( 'NONE', #246, 12.69999999999999929 ) ;
#292 = CC_DESIGN_DATE_AND_TIME_ASSIGNMENT ( #78, #170, ( #82 ) ) ;
#293 = FACE_OUTER_BOUND ( 'NONE', #280, .T. ) ;
#294 = ORIENTED_EDGE ( 'NONE', *, *, #261, .T. ) ;
#295 = AXIS2_PLACEMENT_3D ( 'NONE', #272, #184, #182 ) ;
#296 = DIRECTION ( 'NONE',  ( 0.0000000000000000000, -1.000000000000000000, 6.351546585269412032E-15 ) ) ;
#297 = ORIENTED_EDGE ( 'NONE', *, *, #79, .T. ) ;
#298 = CONICAL_SURFACE ( 'NONE', #54, 12.49999999999997868, 0.7853981633974569387 ) ;
#299 = CARTESIAN_POINT ( 'NONE',  ( 0.0000000000000000000, 1.251302772335701902E-14, -103.2000000000001876 ) ) ;
#300 = DIRECTION ( 'NONE',  ( -0.0000000000000000000, -6.349078012596855731E-15, -1.000000000000000000 ) ) ;
#301 = DIRECTION ( 'NONE',  ( 8.659560562355008046E-17, -0.7071067811865580088, -0.7071067811865369146 ) ) ;
ENDSEC;
END-ISO-10303-21;
