ISO-10303-21;
HEADER;
FILE_DESCRIPTION (( 'STEP AP203' ),
    '1' );
FILE_NAME ('Web Model 66758.STEP',
    '2017-01-31T19:39:50',
    ( '' ),
    ( '' ),
    'SwSTEP 2.0',
    'SolidWorks 2016',
    '' );
FILE_SCHEMA (( 'CONFIG_CONTROL_DESIGN' ));
ENDSEC;

DATA;
#1 = AXIS2_PLACEMENT_3D ( 'NONE', #158, #228, #187 ) ;
#2 = FACE_OUTER_BOUND ( 'NONE', #205, .T. ) ;
#3 = CARTESIAN_POINT ( 'NONE',  ( 0.0000000000000000000, 0.0000000000000000000, 0.0000000000000000000 ) ) ;
#4 = CARTESIAN_POINT ( 'NONE',  ( 0.0000000000000000000, 0.0000000000000000000, 0.0000000000000000000 ) ) ;
#5 = CARTESIAN_POINT ( 'NONE',  ( 0.0000000000000000000, 12.50000000000000000, 0.0008664250296477049600 ) ) ;
#6 = CARTESIAN_POINT ( 'NONE',  ( -8.333333470974869400, 8.333333470974869400, -0.0002888083052293890100 ) ) ;
#7 = PERSON_AND_ORGANIZATION ( #224, #118 ) ;
#8 = CARTESIAN_POINT ( 'NONE',  ( 8.333333470974869400, 8.333333470974862300, -0.0002888083052293890100 ) ) ;
#9 = AXIS2_PLACEMENT_3D ( 'NONE', #103, #126, #167 ) ;
#10 = DIRECTION ( 'NONE',  ( 1.000000000000000000, 0.0000000000000000000, 0.0000000000000000000 ) ) ;
#11 = DIRECTION ( 'NONE',  ( 1.000000000000000000, 0.0000000000000000000, 0.0000000000000000000 ) ) ;
#12 = EDGE_LOOP ( 'NONE', ( #273, #262, #39, #252 ) ) ;
#13 = PRODUCT_DEFINITION_SHAPE ( 'NONE', 'NONE',  #255 ) ;
#14 = CARTESIAN_POINT ( 'NONE',  ( 0.0000000000000000000, 0.0000000000000000000, 0.0000000000000000000 ) ) ;
#15 = CARTESIAN_POINT ( 'NONE',  ( 0.0000000000000000000, 0.0000000000000000000, 0.0000000000000000000 ) ) ;
#16 = PERSON_AND_ORGANIZATION ( #224, #118 ) ;
#17 =( NAMED_UNIT ( * ) PLANE_ANGLE_UNIT ( ) SI_UNIT ( $, .RADIAN. ) );
#18 = CARTESIAN_POINT ( 'NONE',  ( 12.50000000000000000, 12.50000000000000000, 0.0008664250296477049600 ) ) ;
#19 = ORIENTED_EDGE ( 'NONE', *, *, #194, .T. ) ;
#20 = SECURITY_CLASSIFICATION_LEVEL ( 'unclassified' ) ;
#21 = AXIS2_PLACEMENT_3D ( 'NONE', #51, #215, #10 ) ;
#22 = DATE_AND_TIME ( #203, #136 ) ;
#23 = ADVANCED_FACE ( 'NONE', ( #91 ), #265, .T. ) ;
#24 = CC_DESIGN_DATE_AND_TIME_ASSIGNMENT ( #170, #43, ( #146 ) ) ;
#25 = PERSON_AND_ORGANIZATION ( #224, #118 ) ;
#26 = CARTESIAN_POINT ( 'NONE',  ( 0.0000000000000000000, 8.333333470974869400, -0.0002888083052293890100 ) ) ;
#27 = CARTESIAN_POINT ( 'NONE',  ( 0.0000000000000000000, 0.0000000000000000000, 0.0000000000000000000 ) ) ;
#28 = CC_DESIGN_PERSON_AND_ORGANIZATION_ASSIGNMENT ( #280, #42, ( #160 ) ) ;
#29 = CARTESIAN_POINT ( 'NONE',  ( 0.0000000000000000000, 0.0000000000000000000, 0.0000000000000000000 ) ) ;
#30 = CARTESIAN_POINT ( 'NONE',  ( -12.50000000000000000, 7.654042494670959600E-016, 0.0008664250296477049600 ) ) ;
#31 = DIRECTION ( 'NONE',  ( 0.0000000000000000000, -0.0000000000000000000, 1.000000000000000000 ) ) ;
#32 = DIRECTION ( 'NONE',  ( 0.0000000000000000000, 0.0000000000000000000, -1.000000000000000000 ) ) ;
#33 = APPROVAL_DATE_TIME ( #128, #190 ) ;
#34 = CARTESIAN_POINT ( 'NONE',  ( 0.0000000000000000000, 1.776356839400250100E-015, -4.000000000000000000 ) ) ;
#35 = VERTEX_POINT ( 'NONE', #45 ) ;
#36 = DIRECTION ( 'NONE',  ( -1.000000000000000000, 0.0000000000000000000, -0.0000000000000000000 ) ) ;
#37 = CARTESIAN_POINT ( 'NONE',  ( 12.50000000000000000, 12.50000000000000000, 0.0008664250296477049600 ) ) ;
#38 = PERSON_AND_ORGANIZATION_ROLE ( 'design_owner' ) ;
#39 = ORIENTED_EDGE ( 'NONE', *, *, #204, .T. ) ;
#40 = CARTESIAN_POINT ( 'NONE',  ( 0.0000000000000000000, 0.0000000000000000000, 0.0000000000000000000 ) ) ;
#41 = CIRCLE ( 'NONE', #240, 12.50000000000000000 ) ;
#42 = PERSON_AND_ORGANIZATION_ROLE ( 'design_supplier' ) ;
#43 = DATE_TIME_ROLE ( 'classification_date' ) ;
#44 = CLOSED_SHELL ( 'NONE', ( #263, #23, #88, #244, #178 ) ) ;
#45 = CARTESIAN_POINT ( 'NONE',  ( 0.0000000000000000000, 0.0000000000000000000, 0.0000000000000000000 ) ) ;
#46 = CARTESIAN_POINT ( 'NONE',  ( 4.166666689172809700, 4.166666689172809700, 0.0000000000000000000 ) ) ;
#47 = CARTESIAN_POINT ( 'NONE',  ( 0.0000000000000000000, 0.0000000000000000000, 0.0000000000000000000 ) ) ;
#48 = PERSON_AND_ORGANIZATION ( #224, #118 ) ;
#49 = APPROVAL_DATE_TIME ( #106, #216 ) ;
#50 = ORIENTED_EDGE ( 'NONE', *, *, #204, .F. ) ;
#51 = CARTESIAN_POINT ( 'NONE',  ( 3.827021247335479800E-016, 1.632765987455498600E-015, 0.0008664250296477049600 ) ) ;
#52 = CARTESIAN_POINT ( 'NONE',  ( -5.102695024009380000E-016, -4.166666689172809700, 0.0000000000000000000 ) ) ;
#53 = DIRECTION ( 'NONE',  ( 1.000000000000000000, 0.0000000000000000000, 0.0000000000000000000 ) ) ;
#54 = UNCERTAINTY_MEASURE_WITH_UNIT (LENGTH_MEASURE( 1.000000000000000100E-005 ), #238, 'distance_accuracy_value', 'NONE');
#55 = CARTESIAN_POINT ( 'NONE',  ( 8.333333470974869400, 8.333333470974862300, -0.0002888083052293890100 ) ) ;
#56 =( NAMED_UNIT ( * ) SI_UNIT ( $, .STERADIAN. ) SOLID_ANGLE_UNIT ( ) );
#57 = APPLICATION_PROTOCOL_DEFINITION ( 'international standard', 'config_control_design', 1994, #174 ) ;
#58 = APPLICATION_CONTEXT ( 'configuration controlled 3d designs of mechanical parts and assemblies' ) ;
#59 = CIRCLE ( 'NONE', #21, 12.50000000000000000 ) ;
#60 = PERSON_AND_ORGANIZATION_ROLE ( 'creator' ) ;
#61 = COORDINATED_UNIVERSAL_TIME_OFFSET ( 5, 0, .BEHIND. ) ;
#62 = CARTESIAN_POINT ( 'NONE',  ( -5.102695024009380000E-016, -4.166666689172809700, 0.0000000000000000000 ) ) ;
#63 = VERTEX_POINT ( 'NONE', #186 ) ;
#64 = CARTESIAN_POINT ( 'NONE',  ( -9.629649721936179300E-032, 12.50000000000000400, 0.0008664250296477049600 ) ) ;
#65 = EDGE_CURVE ( 'NONE', #35, #269, #96, .T. ) ;
#66 = CARTESIAN_POINT ( 'NONE',  ( 8.333333470974869400, -1.530808524218529900E-015, -0.0002888083052293890100 ) ) ;
#67 = LOCAL_TIME ( 14, 39, 50.00000000000000000, #115 ) ;
#68 = PERSON_AND_ORGANIZATION ( #224, #118 ) ;
#69 = DIRECTION ( 'NONE',  ( 1.000000000000000000, 0.0000000000000000000, 0.0000000000000000000 ) ) ;
#70 = CARTESIAN_POINT ( 'NONE',  ( 12.50000000000000000, -2.296212748401289900E-015, 0.0008664250296477049600 ) ) ;
#71 = AXIS2_PLACEMENT_3D ( 'NONE', #189, #275, #231 ) ;
#72 = PERSON_AND_ORGANIZATION ( #224, #118 ) ;
#73 = CARTESIAN_POINT ( 'NONE',  ( 0.0000000000000000000, 12.50000000000000000, 0.0008664250296477049600 ) ) ;
#74 = PRODUCT ( 'Web Model 66758', 'Web Model 66758', '', ( #150 ) ) ;
#75 = CARTESIAN_POINT ( 'NONE',  ( 0.0000000000000000000, 0.0000000000000000000, 0.0000000000000000000 ) ) ;
#76 = CIRCLE ( 'NONE', #122, 12.50000000000000000 ) ;
#77 = CARTESIAN_POINT ( 'NONE',  ( 0.0000000000000000000, 8.333333470974869400, -0.0002888083052293890100 ) ) ;
#78 = CARTESIAN_POINT ( 'NONE',  ( 4.166666689172809700, -4.166666689172809700, 0.0000000000000000000 ) ) ;
#79 = CALENDAR_DATE ( 2017, 31, 1 ) ;
#80 = FACE_OUTER_BOUND ( 'NONE', #227, .T. ) ;
#81 = VERTEX_POINT ( 'NONE', #267 ) ;
#82 = APPROVAL_STATUS ( 'not_yet_approved' ) ;
#83 = MANIFOLD_SOLID_BREP ( 'Imported1', #44 ) ;
#84 = CC_DESIGN_DATE_AND_TIME_ASSIGNMENT ( #22, #151, ( #255 ) ) ;
#85 = ORIENTED_EDGE ( 'NONE', *, *, #210, .F. ) ;
#86 = CALENDAR_DATE ( 2017, 31, 1 ) ;
#87 = VERTEX_POINT ( 'NONE', #109 ) ;
#88 = ADVANCED_FACE ( 'NONE', ( #272 ), #250, .T. ) ;
#89 = CARTESIAN_POINT ( 'NONE',  ( -4.166666689172809700, 4.166666689172809700, 0.0000000000000000000 ) ) ;
#90 = CARTESIAN_POINT ( 'NONE',  ( 0.0000000000000000000, 0.0000000000000000000, 0.0000000000000000000 ) ) ;
#91 = FACE_OUTER_BOUND ( 'NONE', #98, .T. ) ;
#92 = CARTESIAN_POINT ( 'NONE',  ( 4.166666689172809700, -4.166666689172809700, 0.0000000000000000000 ) ) ;
#93 = CARTESIAN_POINT ( 'NONE',  ( 0.0000000000000000000, 4.166666689172809700, 0.0000000000000000000 ) ) ;
#94 = CARTESIAN_POINT ( 'NONE',  ( -1.530808498934189900E-015, -12.49999999999999800, 0.0008664250296477049600 ) ) ;
#95 = EDGE_LOOP ( 'NONE', ( #149, #232 ) ) ;
#96 = B_SPLINE_CURVE_WITH_KNOTS ( 'NONE', 3,
 ( #90, #93, #26, #64 ),
 .UNSPECIFIED., .F., .F.,
 ( 4, 4 ),
 ( 0.0000000000000000000, 1.000000000000000000 ),
 .UNSPECIFIED. ) ;
#97 = CARTESIAN_POINT ( 'NONE',  ( 0.0000000000000000000, 12.50000000000000000, 0.0008664250296477049600 ) ) ;
#98 = EDGE_LOOP ( 'NONE', ( #19, #153, #50, #260, #191 ) ) ;
#99 = CARTESIAN_POINT ( 'NONE',  ( 0.0000000000000000000, 0.0000000000000000000, 0.0000000000000000000 ) ) ;
#100 = CARTESIAN_POINT ( 'NONE',  ( -4.166666689172809700, 4.166666689172809700, 0.0000000000000000000 ) ) ;
#101 = CARTESIAN_POINT ( 'NONE',  ( -12.50000000000000000, -12.50000000000000000, 0.0008664250296477049600 ) ) ;
#102 = CYLINDRICAL_SURFACE ( 'NONE', #264, 12.50000000000000000 ) ;
#103 = CARTESIAN_POINT ( 'NONE',  ( 0.0000000000000000000, 0.0000000000000000000, 0.0000000000000000000 ) ) ;
#104 = AXIS2_PLACEMENT_3D ( 'NONE', #143, #248, #11 ) ;
#105 = APPLICATION_PROTOCOL_DEFINITION ( 'international standard', 'config_control_design', 1994, #58 ) ;
#106 = DATE_AND_TIME ( #172, #230 ) ;
#107 = ORIENTED_EDGE ( 'NONE', *, *, #222, .T. ) ;
#108 =( GEOMETRIC_REPRESENTATION_CONTEXT ( 3 ) GLOBAL_UNCERTAINTY_ASSIGNED_CONTEXT ( ( #54 ) ) GLOBAL_UNIT_ASSIGNED_CONTEXT ( ( #238, #17, #56 ) ) REPRESENTATION_CONTEXT ( 'NONE', 'WORKASPACE' ) );
#109 = CARTESIAN_POINT ( 'NONE',  ( 12.50000000000000000, 1.632765987455498600E-015, 0.0008664250296477049600 ) ) ;
#110 = EDGE_CURVE ( 'NONE', #35, #266, #123, .T. ) ;
#111 = CARTESIAN_POINT ( 'NONE',  ( -8.333333470974869400, 5.102695080728439600E-016, -0.0002888083052293890100 ) ) ;
#112 = EDGE_CURVE ( 'NONE', #87, #269, #237, .T. ) ;
#113 = CC_DESIGN_PERSON_AND_ORGANIZATION_ASSIGNMENT ( #225, #243, ( #146 ) ) ;
#114 = CARTESIAN_POINT ( 'NONE',  ( 0.0000000000000000000, 8.333333470974869400, -0.0002888083052293890100 ) ) ;
#115 = COORDINATED_UNIVERSAL_TIME_OFFSET ( 5, 0, .BEHIND. ) ;
#116 = CARTESIAN_POINT ( 'NONE',  ( -8.333333470974869400, -8.333333470974862300, -0.0002888083052293890100 ) ) ;
#117 = ADVANCED_BREP_SHAPE_REPRESENTATION ( 'Web Model 66758', ( #83, #9 ), #108 ) ;
#118 = ORGANIZATION ( 'UNSPECIFIED', 'UNSPECIFIED', '' ) ;
#119 = DIRECTION ( 'NONE',  ( 0.0000000000000000000, 0.0000000000000000000, 1.000000000000000000 ) ) ;
#120 = DIRECTION ( 'NONE',  ( -8.673617379884040200E-021, -1.703833882774470100E-037, 1.000000000000000000 ) ) ;
#121 = CARTESIAN_POINT ( 'NONE',  ( -1.020539016145690100E-015, -8.333333470974869400, -0.0002888083052293890100 ) ) ;
#122 = AXIS2_PLACEMENT_3D ( 'NONE', #253, #119, #53 ) ;
#123 = B_SPLINE_CURVE_WITH_KNOTS ( 'NONE', 3,
 ( #276, #52, #121, #249 ),
 .UNSPECIFIED., .F., .F.,
 ( 4, 4 ),
 ( 0.0000000000000000000, 1.000000000000000000 ),
 .UNSPECIFIED. ) ;
#124 = DIRECTION ( 'NONE',  ( 0.0000000000000000000, -0.0000000000000000000, 1.000000000000000000 ) ) ;
#125 = CARTESIAN_POINT ( 'NONE',  ( 12.50000000000000000, -2.296212748401289900E-015, 0.0008664250296477049600 ) ) ;
#126 = DIRECTION ( 'NONE',  ( 0.0000000000000000000, 0.0000000000000000000, 1.000000000000000000 ) ) ;
#127 = CC_DESIGN_PERSON_AND_ORGANIZATION_ASSIGNMENT ( #68, #60, ( #255 ) ) ;
#128 = DATE_AND_TIME ( #86, #148 ) ;
#129 = ORIENTED_EDGE ( 'NONE', *, *, #201, .T. ) ;
#130 = APPROVAL_ROLE ( '' ) ;
#131 = VECTOR ( 'NONE', #274, 1000.000000000000000 ) ;
#132 = CC_DESIGN_APPROVAL ( #190, ( #255 ) ) ;
#133 = VECTOR ( 'NONE', #120, 1000.000000000000000 ) ;
#134 = CARTESIAN_POINT ( 'NONE',  ( 0.0000000000000000000, 0.0000000000000000000, 0.0000000000000000000 ) ) ;
#135 = CARTESIAN_POINT ( 'NONE',  ( 8.333333470974862300, -8.333333470974869400, -0.0002888083052293890100 ) ) ;
#136 = LOCAL_TIME ( 14, 39, 50.00000000000000000, #259 ) ;
#137 = CARTESIAN_POINT ( 'NONE',  ( -12.50000000000000000, -12.50000000000000000, 0.0008664250296477049600 ) ) ;
#138 = CARTESIAN_POINT ( 'NONE',  ( 12.50000000000000000, 1.776356839400250100E-015, -4.000000000000000000 ) ) ;
#139 = CALENDAR_DATE ( 2017, 31, 1 ) ;
#140 = CARTESIAN_POINT ( 'NONE',  ( 3.827021247335479800E-016, 0.0000000000000000000, -4.000000000000000000 ) ) ;
#141 = APPROVAL_PERSON_ORGANIZATION ( #16, #216, #130 ) ;
#142 = CC_DESIGN_SECURITY_CLASSIFICATION ( #146, ( #160 ) ) ;
#143 = CARTESIAN_POINT ( 'NONE',  ( 3.827021247335479800E-016, 1.632765987455498600E-015, 0.0008664250296477049600 ) ) ;
#144 = CARTESIAN_POINT ( 'NONE',  ( 0.0000000000000000000, 4.166666689172809700, 0.0000000000000000000 ) ) ;
#145 = CARTESIAN_POINT ( 'NONE',  ( -4.166666689172809700, -4.166666689172809700, 0.0000000000000000000 ) ) ;
#146 = SECURITY_CLASSIFICATION ( '', '', #20 ) ;
#147 = CARTESIAN_POINT ( 'NONE',  ( -1.530808498934190100E-015, -12.50000000000000000, 0.0008664250296477049600 ) ) ;
#148 = LOCAL_TIME ( 14, 39, 50.00000000000000000, #200 ) ;
#149 = ORIENTED_EDGE ( 'NONE', *, *, #194, .F. ) ;
#150 = MECHANICAL_CONTEXT ( 'NONE', #174, 'mechanical' ) ;
#151 = DATE_TIME_ROLE ( 'creation_date' ) ;
#152 = APPROVAL_STATUS ( 'not_yet_approved' ) ;
#153 = ORIENTED_EDGE ( 'NONE', *, *, #179, .T. ) ;
#154 = CARTESIAN_POINT ( 'NONE',  ( 0.0000000000000000000, 0.0000000000000000000, 0.0000000000000000000 ) ) ;
#155 = APPROVAL_DATE_TIME ( #164, #181 ) ;
#156 = CARTESIAN_POINT ( 'NONE',  ( -4.166666689172809700, -4.166666689172809700, 0.0000000000000000000 ) ) ;
#157 = ORIENTED_EDGE ( 'NONE', *, *, #159, .T. ) ;
#158 = CARTESIAN_POINT ( 'NONE',  ( 0.0000000000000000000, 1.776356839400250100E-015, -4.000000000000000000 ) ) ;
#159 = EDGE_CURVE ( 'NONE', #266, #87, #59, .T. ) ;
#160 = PRODUCT_DEFINITION_FORMATION_WITH_SPECIFIED_SOURCE ( 'ANY', '', #74, .NOT_KNOWN. ) ;
#161 = APPROVAL_PERSON_ORGANIZATION ( #48, #181, #223 ) ;
#162 = CARTESIAN_POINT ( 'NONE',  ( -25.70400000000000100, 0.0000000000000000000, -4.000000000000000000 ) ) ;
#163 = CARTESIAN_POINT ( 'NONE',  ( -9.629649721936179300E-032, 12.50000000000000400, 0.0008664250296477049600 ) ) ;
#164 = DATE_AND_TIME ( #79, #220 ) ;
#165 = CC_DESIGN_PERSON_AND_ORGANIZATION_ASSIGNMENT ( #72, #38, ( #74 ) ) ;
#166 = VERTEX_POINT ( 'NONE', #211 ) ;
#167 = DIRECTION ( 'NONE',  ( 1.000000000000000000, 0.0000000000000000000, 0.0000000000000000000 ) ) ;
#168 = CARTESIAN_POINT ( 'NONE',  ( -8.333333470974869400, -8.333333470974862300, -0.0002888083052293890100 ) ) ;
#169 = CARTESIAN_POINT ( 'NONE',  ( -8.333333470974869400, 5.102695080728439600E-016, -0.0002888083052293890100 ) ) ;
#170 = DATE_AND_TIME ( #139, #67 ) ;
#171 = CARTESIAN_POINT ( 'NONE',  ( -12.50000000000000000, 12.50000000000000000, 0.0008664250296477049600 ) ) ;
#172 = CALENDAR_DATE ( 2017, 31, 1 ) ;
#173 = ORIENTED_EDGE ( 'NONE', *, *, #110, .T. ) ;
#174 = APPLICATION_CONTEXT ( 'configuration controlled 3d designs of mechanical parts and assemblies' ) ;
#175 = PRODUCT_RELATED_PRODUCT_CATEGORY ( 'detail', '', ( #74 ) ) ;
#176 = FACE_OUTER_BOUND ( 'NONE', #95, .T. ) ;
#177 = APPROVAL_STATUS ( 'not_yet_approved' ) ;
#178 = ADVANCED_FACE ( 'NONE', ( #2 ), #102, .T. ) ;
#179 = EDGE_CURVE ( 'NONE', #63, #166, #213, .T. ) ;
#180 = APPROVAL_PERSON_ORGANIZATION ( #7, #190, #202 ) ;
#181 = APPROVAL ( #177, 'UNSPECIFIED' ) ;
#182 = CARTESIAN_POINT ( 'NONE',  ( -1.530808498934190100E-015, -12.50000000000000000, 0.0008664250296477049600 ) ) ;
#183 =( BOUNDED_SURFACE ( )  B_SPLINE_SURFACE ( 3, 2, ( 
 ( #197, #14, #75, #40, #236, #99, #15, #278, #193 ),
 ( #235, #100, #277, #145, #283, #78, #195, #198, #144 ),
 ( #77, #217, #169, #168, #279, #258, #281, #55, #239 ),
 ( #73, #171, #221, #101, #147, #256, #125, #18, #219 ) ),
 .UNSPECIFIED., .F., .T., .F. ) 
 B_SPLINE_SURFACE_WITH_KNOTS ( ( 4, 4 ),
 ( 3, 2, 2, 2, 3 ),
 ( 0.0000000000000000000, 1.000000000000000000 ),
 ( 0.0000000000000000000, 90.00000000000000000, 180.0000000000000000, 270.0000000000000000, 360.0000000000000000 ),
 .UNSPECIFIED. ) 
 GEOMETRIC_REPRESENTATION_ITEM ( )  RATIONAL_B_SPLINE_SURFACE ( (
 ( 1.000000000000000000, 0.7071067811865480200, 1.000000000000000000, 0.7071067811865480200, 1.000000000000000000, 0.7071067811865480200, 1.000000000000000000, 0.7071067811865480200, 1.000000000000000000),
 ( 1.000000000000000000, 0.7071067811865480200, 1.000000000000000000, 0.7071067811865480200, 1.000000000000000000, 0.7071067811865480200, 1.000000000000000000, 0.7071067811865480200, 1.000000000000000000),
 ( 1.000000000000000000, 0.7071067811865480200, 1.000000000000000000, 0.7071067811865480200, 1.000000000000000000, 0.7071067811865480200, 1.000000000000000000, 0.7071067811865480200, 1.000000000000000000),
 ( 1.000000000000000000, 0.7071067811865480200, 1.000000000000000000, 0.7071067811865480200, 1.000000000000000000, 0.7071067811865480200, 1.000000000000000000, 0.7071067811865480200, 1.000000000000000000) ) ) 
 REPRESENTATION_ITEM ( '' )  SURFACE ( )  );
#184 = ORIENTED_EDGE ( 'NONE', *, *, #159, .F. ) ;
#185 = CARTESIAN_POINT ( 'NONE',  ( 4.166666689172809700, -7.654042536014080900E-016, 0.0000000000000000000 ) ) ;
#186 = CARTESIAN_POINT ( 'NONE',  ( -12.50000000000000000, 3.307165338334441800E-015, -4.000000000000000000 ) ) ;
#187 = DIRECTION ( 'NONE',  ( 1.000000000000000000, 0.0000000000000000000, 0.0000000000000000000 ) ) ;
#188 = CARTESIAN_POINT ( 'NONE',  ( -12.50000000000000000, 3.307165338334441800E-015, -4.000000000000000000 ) ) ;
#189 = CARTESIAN_POINT ( 'NONE',  ( 3.827021247335479800E-016, 1.632765987455498600E-015, 0.0008664250296477049600 ) ) ;
#190 = APPROVAL ( #82, 'UNSPECIFIED' ) ;
#191 = ORIENTED_EDGE ( 'NONE', *, *, #222, .F. ) ;
#192 = DIRECTION ( 'NONE',  ( -8.673617379884040200E-021, -1.703833882774470100E-037, 1.000000000000000000 ) ) ;
#193 = CARTESIAN_POINT ( 'NONE',  ( 0.0000000000000000000, 0.0000000000000000000, 0.0000000000000000000 ) ) ;
#194 = EDGE_CURVE ( 'NONE', #81, #63, #241, .T. ) ;
#195 = CARTESIAN_POINT ( 'NONE',  ( 4.166666689172809700, -7.654042536014080900E-016, 0.0000000000000000000 ) ) ;
#196 = LINE ( 'NONE', #138, #131 ) ;
#197 = CARTESIAN_POINT ( 'NONE',  ( 0.0000000000000000000, 0.0000000000000000000, 0.0000000000000000000 ) ) ;
#198 = CARTESIAN_POINT ( 'NONE',  ( 4.166666689172809700, 4.166666689172809700, 0.0000000000000000000 ) ) ;
#199 = CC_DESIGN_APPROVAL ( #181, ( #146 ) ) ;
#200 = COORDINATED_UNIVERSAL_TIME_OFFSET ( 5, 0, .BEHIND. ) ;
#201 = EDGE_CURVE ( 'NONE', #63, #81, #41, .T. ) ;
#202 = APPROVAL_ROLE ( '' ) ;
#203 = CALENDAR_DATE ( 2017, 31, 1 ) ;
#204 = EDGE_CURVE ( 'NONE', #269, #166, #76, .T. ) ;
#205 = EDGE_LOOP ( 'NONE', ( #208, #129, #107, #184, #85 ) ) ;
#206 = CARTESIAN_POINT ( 'NONE',  ( 0.0000000000000000000, 0.0000000000000000000, 0.0000000000000000000 ) ) ;
#207 = CARTESIAN_POINT ( 'NONE',  ( 0.0000000000000000000, 4.166666689172809700, 0.0000000000000000000 ) ) ;
#208 = ORIENTED_EDGE ( 'NONE', *, *, #179, .F. ) ;
#209 = CARTESIAN_POINT ( 'NONE',  ( -4.166666689172809700, 2.551347512004690000E-016, 0.0000000000000000000 ) ) ;
#210 = EDGE_CURVE ( 'NONE', #166, #266, #234, .T. ) ;
#211 = CARTESIAN_POINT ( 'NONE',  ( -12.50000000000000000, 3.307165338334441800E-015, 0.0008664250296477049600 ) ) ;
#212 = PLANE ( 'NONE',  #282 ) ;
#213 = LINE ( 'NONE', #188, #133 ) ;
#214 = DIRECTION ( 'NONE',  ( 1.000000000000000000, 0.0000000000000000000, 0.0000000000000000000 ) ) ;
#215 = DIRECTION ( 'NONE',  ( 0.0000000000000000000, 0.0000000000000000000, 1.000000000000000000 ) ) ;
#216 = APPROVAL ( #152, 'UNSPECIFIED' ) ;
#217 = CARTESIAN_POINT ( 'NONE',  ( -8.333333470974869400, 8.333333470974869400, -0.0002888083052293890100 ) ) ;
#218 = ORIENTED_EDGE ( 'NONE', *, *, #65, .F. ) ;
#219 = CARTESIAN_POINT ( 'NONE',  ( 0.0000000000000000000, 12.50000000000000000, 0.0008664250296477049600 ) ) ;
#220 = LOCAL_TIME ( 14, 39, 50.00000000000000000, #271 ) ;
#221 = CARTESIAN_POINT ( 'NONE',  ( -12.50000000000000000, 7.654042494670959600E-016, 0.0008664250296477049600 ) ) ;
#222 = EDGE_CURVE ( 'NONE', #81, #87, #196, .T. ) ;
#223 = APPROVAL_ROLE ( '' ) ;
#224 = PERSON ( 'UNSPECIFIED', 'UNSPECIFIED', 'UNSPECIFIED', ('UNSPECIFIED'), ('UNSPECIFIED'), ('UNSPECIFIED') ) ;
#225 = PERSON_AND_ORGANIZATION ( #224, #118 ) ;
#226 = CARTESIAN_POINT ( 'NONE',  ( 0.0000000000000000000, 0.0000000000000000000, 0.0000000000000000000 ) ) ;
#227 = EDGE_LOOP ( 'NONE', ( #218, #173, #157, #242 ) ) ;
#228 = DIRECTION ( 'NONE',  ( -8.673617379884040200E-021, -1.703833882774470100E-037, 1.000000000000000000 ) ) ;
#229 = AXIS2_PLACEMENT_3D ( 'NONE', #254, #124, #214 ) ;
#230 = LOCAL_TIME ( 14, 39, 50.00000000000000000, #61 ) ;
#231 = DIRECTION ( 'NONE',  ( 1.000000000000000000, 0.0000000000000000000, 0.0000000000000000000 ) ) ;
#232 = ORIENTED_EDGE ( 'NONE', *, *, #201, .F. ) ;
#233 = CARTESIAN_POINT ( 'NONE',  ( 12.50000000000000000, -12.50000000000000000, 0.0008664250296477049600 ) ) ;
#234 = CIRCLE ( 'NONE', #104, 12.50000000000000000 ) ;
#235 = CARTESIAN_POINT ( 'NONE',  ( 0.0000000000000000000, 4.166666689172809700, 0.0000000000000000000 ) ) ;
#236 = CARTESIAN_POINT ( 'NONE',  ( 0.0000000000000000000, 0.0000000000000000000, 0.0000000000000000000 ) ) ;
#237 = CIRCLE ( 'NONE', #71, 12.50000000000000000 ) ;
#238 =( LENGTH_UNIT ( ) NAMED_UNIT ( * ) SI_UNIT ( .MILLI., .METRE. ) );
#239 = CARTESIAN_POINT ( 'NONE',  ( 0.0000000000000000000, 8.333333470974869400, -0.0002888083052293890100 ) ) ;
#240 = AXIS2_PLACEMENT_3D ( 'NONE', #140, #31, #69 ) ;
#241 = CIRCLE ( 'NONE', #229, 12.50000000000000000 ) ;
#242 = ORIENTED_EDGE ( 'NONE', *, *, #112, .T. ) ;
#243 = PERSON_AND_ORGANIZATION_ROLE ( 'classification_officer' ) ;
#244 = ADVANCED_FACE ( 'NONE', ( #176 ), #212, .T. ) ;
#245 = CARTESIAN_POINT ( 'NONE',  ( 0.0000000000000000000, 8.333333470974869400, -0.0002888083052293890100 ) ) ;
#246 = CARTESIAN_POINT ( 'NONE',  ( -12.50000000000000000, 12.50000000000000000, 0.0008664250296477049600 ) ) ;
#247 = CARTESIAN_POINT ( 'NONE',  ( 0.0000000000000000000, 4.166666689172809700, 0.0000000000000000000 ) ) ;
#248 = DIRECTION ( 'NONE',  ( 0.0000000000000000000, 0.0000000000000000000, 1.000000000000000000 ) ) ;
#249 = CARTESIAN_POINT ( 'NONE',  ( -1.530808498934189900E-015, -12.49999999999999800, 0.0008664250296477049600 ) ) ;
#250 =( BOUNDED_SURFACE ( )  B_SPLINE_SURFACE ( 3, 2, ( 
 ( #134, #27, #4, #206, #47, #3, #226, #154, #29 ),
 ( #247, #89, #209, #156, #62, #92, #185, #46, #207 ),
 ( #245, #6, #111, #116, #270, #135, #66, #8, #114 ),
 ( #5, #246, #30, #137, #182, #233, #70, #37, #97 ) ),
 .UNSPECIFIED., .F., .T., .F. ) 
 B_SPLINE_SURFACE_WITH_KNOTS ( ( 4, 4 ),
 ( 3, 2, 2, 2, 3 ),
 ( 0.0000000000000000000, 1.000000000000000000 ),
 ( 0.0000000000000000000, 90.00000000000000000, 180.0000000000000000, 270.0000000000000000, 360.0000000000000000 ),
 .UNSPECIFIED. ) 
 GEOMETRIC_REPRESENTATION_ITEM ( )  RATIONAL_B_SPLINE_SURFACE ( (
 ( 1.000000000000000000, 0.7071067811865480200, 1.000000000000000000, 0.7071067811865480200, 1.000000000000000000, 0.7071067811865480200, 1.000000000000000000, 0.7071067811865480200, 1.000000000000000000),
 ( 1.000000000000000000, 0.7071067811865480200, 1.000000000000000000, 0.7071067811865480200, 1.000000000000000000, 0.7071067811865480200, 1.000000000000000000, 0.7071067811865480200, 1.000000000000000000),
 ( 1.000000000000000000, 0.7071067811865480200, 1.000000000000000000, 0.7071067811865480200, 1.000000000000000000, 0.7071067811865480200, 1.000000000000000000, 0.7071067811865480200, 1.000000000000000000),
 ( 1.000000000000000000, 0.7071067811865480200, 1.000000000000000000, 0.7071067811865480200, 1.000000000000000000, 0.7071067811865480200, 1.000000000000000000, 0.7071067811865480200, 1.000000000000000000) ) ) 
 REPRESENTATION_ITEM ( '' )  SURFACE ( )  );
#251 = DIRECTION ( 'NONE',  ( 1.000000000000000000, 0.0000000000000000000, 0.0000000000000000000 ) ) ;
#252 = ORIENTED_EDGE ( 'NONE', *, *, #210, .T. ) ;
#253 = CARTESIAN_POINT ( 'NONE',  ( 3.827021247335479800E-016, 1.632765987455498600E-015, 0.0008664250296477049600 ) ) ;
#254 = CARTESIAN_POINT ( 'NONE',  ( 3.827021247335479800E-016, 0.0000000000000000000, -4.000000000000000000 ) ) ;
#255 = PRODUCT_DEFINITION ( 'UNKNOWN', '', #160, #261 ) ;
#256 = CARTESIAN_POINT ( 'NONE',  ( 12.50000000000000000, -12.50000000000000000, 0.0008664250296477049600 ) ) ;
#257 = SHAPE_DEFINITION_REPRESENTATION ( #13, #117 ) ;
#258 = CARTESIAN_POINT ( 'NONE',  ( 8.333333470974862300, -8.333333470974869400, -0.0002888083052293890100 ) ) ;
#259 = COORDINATED_UNIVERSAL_TIME_OFFSET ( 5, 0, .BEHIND. ) ;
#260 = ORIENTED_EDGE ( 'NONE', *, *, #112, .F. ) ;
#261 = DESIGN_CONTEXT ( 'detailed design', #58, 'design' ) ;
#262 = ORIENTED_EDGE ( 'NONE', *, *, #65, .T. ) ;
#263 = ADVANCED_FACE ( 'NONE', ( #80 ), #183, .T. ) ;
#264 = AXIS2_PLACEMENT_3D ( 'NONE', #34, #192, #251 ) ;
#265 = CYLINDRICAL_SURFACE ( 'NONE', #1, 12.50000000000000000 ) ;
#266 = VERTEX_POINT ( 'NONE', #94 ) ;
#267 = CARTESIAN_POINT ( 'NONE',  ( 12.50000000000000000, 0.0000000000000000000, -4.000000000000000000 ) ) ;
#268 = CC_DESIGN_APPROVAL ( #216, ( #160 ) ) ;
#269 = VERTEX_POINT ( 'NONE', #163 ) ;
#270 = CARTESIAN_POINT ( 'NONE',  ( -1.020539016145690100E-015, -8.333333470974869400, -0.0002888083052293890100 ) ) ;
#271 = COORDINATED_UNIVERSAL_TIME_OFFSET ( 5, 0, .BEHIND. ) ;
#272 = FACE_OUTER_BOUND ( 'NONE', #12, .T. ) ;
#273 = ORIENTED_EDGE ( 'NONE', *, *, #110, .F. ) ;
#274 = DIRECTION ( 'NONE',  ( -8.673617379884040200E-021, -1.703833882774470100E-037, 1.000000000000000000 ) ) ;
#275 = DIRECTION ( 'NONE',  ( 0.0000000000000000000, 0.0000000000000000000, 1.000000000000000000 ) ) ;
#276 = CARTESIAN_POINT ( 'NONE',  ( 0.0000000000000000000, 0.0000000000000000000, 0.0000000000000000000 ) ) ;
#277 = CARTESIAN_POINT ( 'NONE',  ( -4.166666689172809700, 2.551347512004690000E-016, 0.0000000000000000000 ) ) ;
#278 = CARTESIAN_POINT ( 'NONE',  ( 0.0000000000000000000, 0.0000000000000000000, 0.0000000000000000000 ) ) ;
#279 = CARTESIAN_POINT ( 'NONE',  ( -1.020539016145690100E-015, -8.333333470974869400, -0.0002888083052293890100 ) ) ;
#280 = PERSON_AND_ORGANIZATION ( #224, #118 ) ;
#281 = CARTESIAN_POINT ( 'NONE',  ( 8.333333470974869400, -1.530808524218529900E-015, -0.0002888083052293890100 ) ) ;
#282 = AXIS2_PLACEMENT_3D ( 'NONE', #162, #32, #36 ) ;
#283 = CARTESIAN_POINT ( 'NONE',  ( -5.102695024009380000E-016, -4.166666689172809700, 0.0000000000000000000 ) ) ;
#284 = PERSON_AND_ORGANIZATION_ROLE ( 'creator' ) ;
#285 = CC_DESIGN_PERSON_AND_ORGANIZATION_ASSIGNMENT ( #25, #284, ( #160 ) ) ;
ENDSEC;
END-ISO-10303-21;
