ISO-10303-21;
HEADER;
FILE_DESCRIPTION (( 'STEP AP203' ),
    '1' );
FILE_NAME ('Web Model 68423.STEP',
    '2017-01-31T20:01:56',
    ( '' ),
    ( '' ),
    'SwSTEP 2.0',
    'SolidWorks 2016',
    '' );
FILE_SCHEMA (( 'CONFIG_CONTROL_DESIGN' ));
ENDSEC;

DATA;
#1 = ADVANCED_FACE ( 'NONE', ( #212 ), #139, .F. ) ;
#2 = CC_DESIGN_PERSON_AND_ORGANIZATION_ASSIGNMENT ( #110, #48, ( #189 ) ) ;
#3 = ORIENTED_EDGE ( 'NONE', *, *, #32, .F. ) ;
#4 = EDGE_CURVE ( 'NONE', #151, #128, #123, .T. ) ;
#5 = CARTESIAN_POINT ( 'NONE',  ( 12.50000000000000500, -12.50000000000000000, 0.0000000000000000000 ) ) ;
#6 = DIRECTION ( 'NONE',  ( 0.0000000000000000000, 0.0000000000000000000, -1.000000000000000000 ) ) ;
#7 = APPROVAL ( #17, 'UNSPECIFIED' ) ;
#8 = PERSON_AND_ORGANIZATION ( #97, #127 ) ;
#9 = VERTEX_POINT ( 'NONE', #5 ) ;
#10 = DIRECTION ( 'NONE',  ( -0.0000000000000000000, -0.0000000000000000000, -1.000000000000000000 ) ) ;
#11 = DIRECTION ( 'NONE',  ( 0.0000000000000000000, 0.0000000000000000000, 1.000000000000000000 ) ) ;
#12 = CARTESIAN_POINT ( 'NONE',  ( 12.49999999999999500, 12.50000000000000000, 3.000000000000000000 ) ) ;
#13 = EDGE_CURVE ( 'NONE', #119, #201, #130, .T. ) ;
#14 = ORIENTED_EDGE ( 'NONE', *, *, #16, .F. ) ;
#15 = SECURITY_CLASSIFICATION_LEVEL ( 'unclassified' ) ;
#16 = EDGE_CURVE ( 'NONE', #135, #50, #216, .T. ) ;
#17 = APPROVAL_STATUS ( 'not_yet_approved' ) ;
#18 = CALENDAR_DATE ( 2017, 31, 1 ) ;
#19 = EDGE_LOOP ( 'NONE', ( #23, #204, #190, #30 ) ) ;
#20 = LINE ( 'NONE', #106, #95 ) ;
#21 = ORIENTED_EDGE ( 'NONE', *, *, #85, .F. ) ;
#22 = COORDINATED_UNIVERSAL_TIME_OFFSET ( 5, 0, .BEHIND. ) ;
#23 = ORIENTED_EDGE ( 'NONE', *, *, #13, .T. ) ;
#24 = CARTESIAN_POINT ( 'NONE',  ( 12.49999999999999500, 12.50000000000000000, 3.000000000000000000 ) ) ;
#25 = ORIENTED_EDGE ( 'NONE', *, *, #155, .T. ) ;
#26 = CARTESIAN_POINT ( 'NONE',  ( 12.49999999999999500, 12.50000000000000000, 0.0000000000000000000 ) ) ;
#27 = CARTESIAN_POINT ( 'NONE',  ( -12.49999999999999800, 12.49999999999999600, 0.0000000000000000000 ) ) ;
#28 = AXIS2_PLACEMENT_3D ( 'NONE', #196, #54, #82 ) ;
#29 = APPROVAL_DATE_TIME ( #134, #187 ) ;
#30 = ORIENTED_EDGE ( 'NONE', *, *, #174, .T. ) ;
#31 = CARTESIAN_POINT ( 'NONE',  ( 12.50000000000000500, -12.50000000000000000, 0.0000000000000000000 ) ) ;
#32 = EDGE_CURVE ( 'NONE', #128, #9, #73, .T. ) ;
#33 = UNCERTAINTY_MEASURE_WITH_UNIT (LENGTH_MEASURE( 1.000000000000000100E-005 ), #41, 'distance_accuracy_value', 'NONE');
#34 = VECTOR ( 'NONE', #105, 1000.000000000000000 ) ;
#35 = LOCAL_TIME ( 15, 1, 56.00000000000000000, #22 ) ;
#36 = ORIENTED_EDGE ( 'NONE', *, *, #32, .T. ) ;
#37 = AXIS2_PLACEMENT_3D ( 'NONE', #117, #6, #83 ) ;
#38 = VERTEX_POINT ( 'NONE', #136 ) ;
#39 = DIRECTION ( 'NONE',  ( -1.000000000000000000, -1.387778780781445900E-016, 0.0000000000000000000 ) ) ;
#40 = CARTESIAN_POINT ( 'NONE',  ( 12.50000000000000500, -12.50000000000000000, 3.000000000000000000 ) ) ;
#41 =( LENGTH_UNIT ( ) NAMED_UNIT ( * ) SI_UNIT ( .MILLI., .METRE. ) );
#42 = PRODUCT_RELATED_PRODUCT_CATEGORY ( 'detail', '', ( #101 ) ) ;
#43 = DIRECTION ( 'NONE',  ( 1.000000000000000000, 1.387778780781445700E-016, -0.0000000000000000000 ) ) ;
#44 = DIRECTION ( 'NONE',  ( 1.000000000000000000, 1.387778780781445900E-016, 0.0000000000000000000 ) ) ;
#45 =( NAMED_UNIT ( * ) SI_UNIT ( $, .STERADIAN. ) SOLID_ANGLE_UNIT ( ) );
#46 = EDGE_LOOP ( 'NONE', ( #229, #236, #115, #64 ) ) ;
#47 = CC_DESIGN_APPROVAL ( #7, ( #189 ) ) ;
#48 = PERSON_AND_ORGANIZATION_ROLE ( 'classification_officer' ) ;
#49 = LINE ( 'NONE', #111, #146 ) ;
#50 = VERTEX_POINT ( 'NONE', #103 ) ;
#51 = AXIS2_PLACEMENT_3D ( 'NONE', #184, #11, #108 ) ;
#52 = COORDINATED_UNIVERSAL_TIME_OFFSET ( 5, 0, .BEHIND. ) ;
#53 = PERSON_AND_ORGANIZATION ( #97, #127 ) ;
#54 = DIRECTION ( 'NONE',  ( 1.000000000000000000, 1.387778780781445400E-016, -0.0000000000000000000 ) ) ;
#55 = FACE_OUTER_BOUND ( 'NONE', #219, .T. ) ;
#56 = PLANE ( 'NONE',  #37 ) ;
#57 = EDGE_CURVE ( 'NONE', #151, #201, #20, .T. ) ;
#58 = CARTESIAN_POINT ( 'NONE',  ( 12.49999999999999500, 12.50000000000000000, 3.000000000000000000 ) ) ;
#59 = PERSON_AND_ORGANIZATION ( #97, #127 ) ;
#60 = DIRECTION ( 'NONE',  ( -1.000000000000000000, -4.163336342344336500E-016, 0.0000000000000000000 ) ) ;
#61 = APPLICATION_CONTEXT ( 'configuration controlled 3d designs of mechanical parts and assemblies' ) ;
#62 = APPROVAL_STATUS ( 'not_yet_approved' ) ;
#63 = APPROVAL_PERSON_ORGANIZATION ( #8, #158, #88 ) ;
#64 = ORIENTED_EDGE ( 'NONE', *, *, #96, .T. ) ;
#65 = ADVANCED_FACE ( 'NONE', ( #144 ), #56, .F. ) ;
#66 = LINE ( 'NONE', #24, #118 ) ;
#67 = VECTOR ( 'NONE', #224, 1000.000000000000000 ) ;
#68 = CARTESIAN_POINT ( 'NONE',  ( 12.50000000000000500, -12.50000000000000000, 3.000000000000000000 ) ) ;
#69 = COORDINATED_UNIVERSAL_TIME_OFFSET ( 5, 0, .BEHIND. ) ;
#70 = ORIENTED_EDGE ( 'NONE', *, *, #57, .T. ) ;
#71 = PLANE ( 'NONE',  #157 ) ;
#72 = LINE ( 'NONE', #26, #200 ) ;
#73 = LINE ( 'NONE', #154, #176 ) ;
#74 = CARTESIAN_POINT ( 'NONE',  ( 12.49999999999999500, 12.50000000000000000, 3.000000000000000000 ) ) ;
#75 = DIRECTION ( 'NONE',  ( -4.163336342344337000E-016, 1.000000000000000000, -0.0000000000000000000 ) ) ;
#76 = PERSON_AND_ORGANIZATION_ROLE ( 'design_supplier' ) ;
#77 = COORDINATED_UNIVERSAL_TIME_OFFSET ( 5, 0, .BEHIND. ) ;
#78 = LOCAL_TIME ( 15, 1, 56.00000000000000000, #52 ) ;
#79 = EDGE_CURVE ( 'NONE', #128, #135, #66, .T. ) ;
#80 = FACE_OUTER_BOUND ( 'NONE', #132, .T. ) ;
#81 = ORIENTED_EDGE ( 'NONE', *, *, #148, .F. ) ;
#82 = DIRECTION ( 'NONE',  ( -1.387778780781445400E-016, 1.000000000000000000, 0.0000000000000000000 ) ) ;
#83 = DIRECTION ( 'NONE',  ( -1.000000000000000000, 0.0000000000000000000, -0.0000000000000000000 ) ) ;
#84 = DIRECTION ( 'NONE',  ( 0.0000000000000000000, 0.0000000000000000000, -1.000000000000000000 ) ) ;
#85 = EDGE_CURVE ( 'NONE', #50, #119, #72, .T. ) ;
#86 = ORIENTED_EDGE ( 'NONE', *, *, #174, .F. ) ;
#87 = DIRECTION ( 'NONE',  ( 1.000000000000000000, 1.387778780781445700E-016, -0.0000000000000000000 ) ) ;
#88 = APPROVAL_ROLE ( '' ) ;
#89 =( NAMED_UNIT ( * ) PLANE_ANGLE_UNIT ( ) SI_UNIT ( $, .RADIAN. ) );
#90 = LINE ( 'NONE', #222, #161 ) ;
#91 = ORIENTED_EDGE ( 'NONE', *, *, #85, .T. ) ;
#92 = APPLICATION_CONTEXT ( 'configuration controlled 3d designs of mechanical parts and assemblies' ) ;
#93 = ORIENTED_EDGE ( 'NONE', *, *, #96, .F. ) ;
#94 = COORDINATED_UNIVERSAL_TIME_OFFSET ( 5, 0, .BEHIND. ) ;
#95 = VECTOR ( 'NONE', #177, 1000.000000000000000 ) ;
#96 = EDGE_CURVE ( 'NONE', #135, #38, #141, .T. ) ;
#97 = PERSON ( 'UNSPECIFIED', 'UNSPECIFIED', 'UNSPECIFIED', ('UNSPECIFIED'), ('UNSPECIFIED'), ('UNSPECIFIED') ) ;
#98 = ORIENTED_EDGE ( 'NONE', *, *, #79, .F. ) ;
#99 = ADVANCED_FACE ( 'NONE', ( #113 ), #71, .T. ) ;
#100 = LOCAL_TIME ( 15, 1, 56.00000000000000000, #77 ) ;
#101 = PRODUCT ( 'Web Model 68423', 'Web Model 68423', '', ( #143 ) ) ;
#102 = ORIENTED_EDGE ( 'NONE', *, *, #16, .T. ) ;
#103 = CARTESIAN_POINT ( 'NONE',  ( 12.49999999999999500, 12.50000000000000000, 0.0000000000000000000 ) ) ;
#104 = LOCAL_TIME ( 15, 1, 56.00000000000000000, #69 ) ;
#105 = DIRECTION ( 'NONE',  ( 1.387778780781445700E-016, -1.000000000000000000, 0.0000000000000000000 ) ) ;
#106 = CARTESIAN_POINT ( 'NONE',  ( -12.49999999999999500, -12.50000000000000400, 3.000000000000000000 ) ) ;
#107 = PRODUCT_DEFINITION ( 'UNKNOWN', '', #171, #129 ) ;
#108 = DIRECTION ( 'NONE',  ( 1.000000000000000000, 0.0000000000000000000, 0.0000000000000000000 ) ) ;
#109 = CARTESIAN_POINT ( 'NONE',  ( 12.50000000000000500, -12.50000000000000000, 3.000000000000000000 ) ) ;
#110 = PERSON_AND_ORGANIZATION ( #97, #127 ) ;
#111 = CARTESIAN_POINT ( 'NONE',  ( -12.49999999999999800, 12.49999999999999600, 3.000000000000000000 ) ) ;
#112 = DATE_TIME_ROLE ( 'classification_date' ) ;
#113 = FACE_OUTER_BOUND ( 'NONE', #133, .T. ) ;
#114 = VECTOR ( 'NONE', #43, 1000.000000000000000 ) ;
#115 = ORIENTED_EDGE ( 'NONE', *, *, #79, .T. ) ;
#116 = ADVANCED_FACE ( 'NONE', ( #80 ), #203, .F. ) ;
#117 = CARTESIAN_POINT ( 'NONE',  ( -12.49999999999999500, -12.50000000000000400, 3.000000000000000000 ) ) ;
#118 = VECTOR ( 'NONE', #195, 1000.000000000000000 ) ;
#119 = VERTEX_POINT ( 'NONE', #27 ) ;
#120 = CARTESIAN_POINT ( 'NONE',  ( 12.49999999999999500, 12.50000000000000000, 3.000000000000000000 ) ) ;
#121 = DIRECTION ( 'NONE',  ( -1.000000000000000000, 0.0000000000000000000, -0.0000000000000000000 ) ) ;
#122 = DIRECTION ( 'NONE',  ( -0.0000000000000000000, -0.0000000000000000000, -1.000000000000000000 ) ) ;
#123 = LINE ( 'NONE', #68, #221 ) ;
#124 = DIRECTION ( 'NONE',  ( -0.0000000000000000000, -0.0000000000000000000, -1.000000000000000000 ) ) ;
#125 = PERSON_AND_ORGANIZATION_ROLE ( 'creator' ) ;
#126 = APPLICATION_PROTOCOL_DEFINITION ( 'international standard', 'config_control_design', 1994, #61 ) ;
#127 = ORGANIZATION ( 'UNSPECIFIED', 'UNSPECIFIED', '' ) ;
#128 = VERTEX_POINT ( 'NONE', #40 ) ;
#129 = DESIGN_CONTEXT ( 'detailed design', #92, 'design' ) ;
#130 = LINE ( 'NONE', #220, #34 ) ;
#131 = VECTOR ( 'NONE', #39, 1000.000000000000000 ) ;
#132 = EDGE_LOOP ( 'NONE', ( #25, #14, #98, #36 ) ) ;
#133 = EDGE_LOOP ( 'NONE', ( #209, #21, #192, #81 ) ) ;
#134 = DATE_AND_TIME ( #18, #104 ) ;
#135 = VERTEX_POINT ( 'NONE', #74 ) ;
#136 = CARTESIAN_POINT ( 'NONE',  ( -12.49999999999999800, 12.49999999999999600, 3.000000000000000000 ) ) ;
#137 = DATE_AND_TIME ( #145, #175 ) ;
#138 = EDGE_LOOP ( 'NONE', ( #91, #86, #93, #102 ) ) ;
#139 = PLANE ( 'NONE',  #28 ) ;
#140 = DATE_TIME_ROLE ( 'creation_date' ) ;
#141 = LINE ( 'NONE', #173, #131 ) ;
#142 = CARTESIAN_POINT ( 'NONE',  ( -12.49999999999999500, -12.50000000000000400, 3.000000000000000000 ) ) ;
#143 = MECHANICAL_CONTEXT ( 'NONE', #61, 'mechanical' ) ;
#144 = FACE_OUTER_BOUND ( 'NONE', #46, .T. ) ;
#145 = CALENDAR_DATE ( 2017, 31, 1 ) ;
#146 = VECTOR ( 'NONE', #10, 1000.000000000000000 ) ;
#147 = DATE_AND_TIME ( #227, #100 ) ;
#148 = EDGE_CURVE ( 'NONE', #201, #9, #169, .T. ) ;
#149 = APPROVAL_DATE_TIME ( #137, #7 ) ;
#150 = DATE_AND_TIME ( #208, #35 ) ;
#151 = VERTEX_POINT ( 'NONE', #142 ) ;
#152 = PERSON_AND_ORGANIZATION ( #97, #127 ) ;
#153 = CC_DESIGN_PERSON_AND_ORGANIZATION_ASSIGNMENT ( #152, #76, ( #171 ) ) ;
#154 = CARTESIAN_POINT ( 'NONE',  ( 12.50000000000000500, -12.50000000000000000, 3.000000000000000000 ) ) ;
#155 = EDGE_CURVE ( 'NONE', #9, #50, #90, .T. ) ;
#156 = APPROVAL_DATE_TIME ( #147, #158 ) ;
#157 = AXIS2_PLACEMENT_3D ( 'NONE', #198, #84, #121 ) ;
#158 = APPROVAL ( #199, 'UNSPECIFIED' ) ;
#159 = DIRECTION ( 'NONE',  ( -1.387778780781445400E-016, 1.000000000000000000, 0.0000000000000000000 ) ) ;
#160 = DATE_AND_TIME ( #226, #78 ) ;
#161 = VECTOR ( 'NONE', #75, 1000.000000000000000 ) ;
#162 = PLANE ( 'NONE',  #233 ) ;
#163 = EDGE_CURVE ( 'NONE', #38, #151, #218, .T. ) ;
#164 = APPLICATION_PROTOCOL_DEFINITION ( 'international standard', 'config_control_design', 1994, #92 ) ;
#165 = ADVANCED_BREP_SHAPE_REPRESENTATION ( 'Web Model 68423', ( #186, #51 ), #217 ) ;
#166 = APPROVAL_ROLE ( '' ) ;
#167 = APPROVAL_PERSON_ORGANIZATION ( #59, #187, #166 ) ;
#168 = AXIS2_PLACEMENT_3D ( 'NONE', #58, #60, #230 ) ;
#169 = LINE ( 'NONE', #31, #114 ) ;
#170 = ORIENTED_EDGE ( 'NONE', *, *, #148, .T. ) ;
#171 = PRODUCT_DEFINITION_FORMATION_WITH_SPECIFIED_SOURCE ( 'ANY', '', #101, .NOT_KNOWN. ) ;
#172 = PERSON_AND_ORGANIZATION ( #97, #127 ) ;
#173 = CARTESIAN_POINT ( 'NONE',  ( 12.49999999999999500, 12.50000000000000000, 3.000000000000000000 ) ) ;
#174 = EDGE_CURVE ( 'NONE', #38, #119, #49, .T. ) ;
#175 = LOCAL_TIME ( 15, 1, 56.00000000000000000, #94 ) ;
#176 = VECTOR ( 'NONE', #124, 1000.000000000000000 ) ;
#177 = DIRECTION ( 'NONE',  ( -0.0000000000000000000, -0.0000000000000000000, -1.000000000000000000 ) ) ;
#178 = DIRECTION ( 'NONE',  ( -1.000000000000000000, -1.387778780781445900E-016, 0.0000000000000000000 ) ) ;
#179 = CC_DESIGN_APPROVAL ( #158, ( #107 ) ) ;
#180 = CARTESIAN_POINT ( 'NONE',  ( -12.49999999999999500, -12.50000000000000400, 0.0000000000000000000 ) ) ;
#181 = SHAPE_DEFINITION_REPRESENTATION ( #194, #165 ) ;
#182 = AXIS2_PLACEMENT_3D ( 'NONE', #109, #159, #225 ) ;
#183 = CLOSED_SHELL ( 'NONE', ( #1, #213, #116, #235, #65, #99 ) ) ;
#184 = CARTESIAN_POINT ( 'NONE',  ( 0.0000000000000000000, 0.0000000000000000000, 0.0000000000000000000 ) ) ;
#185 = PERSON_AND_ORGANIZATION_ROLE ( 'design_owner' ) ;
#186 = MANIFOLD_SOLID_BREP ( 'Extrude1', #183 ) ;
#187 = APPROVAL ( #62, 'UNSPECIFIED' ) ;
#188 = CARTESIAN_POINT ( 'NONE',  ( -12.49999999999999800, 12.49999999999999600, 3.000000000000000000 ) ) ;
#189 = SECURITY_CLASSIFICATION ( '', '', #15 ) ;
#190 = ORIENTED_EDGE ( 'NONE', *, *, #163, .F. ) ;
#191 = PERSON_AND_ORGANIZATION ( #97, #127 ) ;
#192 = ORIENTED_EDGE ( 'NONE', *, *, #155, .F. ) ;
#193 = ORIENTED_EDGE ( 'NONE', *, *, #4, .F. ) ;
#194 = PRODUCT_DEFINITION_SHAPE ( 'NONE', 'NONE',  #107 ) ;
#195 = DIRECTION ( 'NONE',  ( -4.163336342344337000E-016, 1.000000000000000000, -0.0000000000000000000 ) ) ;
#196 = CARTESIAN_POINT ( 'NONE',  ( -12.49999999999999800, 12.49999999999999600, 3.000000000000000000 ) ) ;
#197 = CC_DESIGN_PERSON_AND_ORGANIZATION_ASSIGNMENT ( #211, #205, ( #171 ) ) ;
#198 = CARTESIAN_POINT ( 'NONE',  ( -12.49999999999999500, -12.50000000000000400, 0.0000000000000000000 ) ) ;
#199 = APPROVAL_STATUS ( 'not_yet_approved' ) ;
#200 = VECTOR ( 'NONE', #178, 1000.000000000000000 ) ;
#201 = VERTEX_POINT ( 'NONE', #180 ) ;
#202 = DIRECTION ( 'NONE',  ( 1.387778780781445900E-016, -1.000000000000000000, 0.0000000000000000000 ) ) ;
#203 = PLANE ( 'NONE',  #168 ) ;
#204 = ORIENTED_EDGE ( 'NONE', *, *, #57, .F. ) ;
#205 = PERSON_AND_ORGANIZATION_ROLE ( 'creator' ) ;
#206 = APPROVAL_PERSON_ORGANIZATION ( #172, #7, #207 ) ;
#207 = APPROVAL_ROLE ( '' ) ;
#208 = CALENDAR_DATE ( 2017, 31, 1 ) ;
#209 = ORIENTED_EDGE ( 'NONE', *, *, #13, .F. ) ;
#210 = CC_DESIGN_PERSON_AND_ORGANIZATION_ASSIGNMENT ( #191, #125, ( #107 ) ) ;
#211 = PERSON_AND_ORGANIZATION ( #97, #127 ) ;
#212 = FACE_OUTER_BOUND ( 'NONE', #19, .T. ) ;
#213 = ADVANCED_FACE ( 'NONE', ( #55 ), #228, .F. ) ;
#214 = CC_DESIGN_DATE_AND_TIME_ASSIGNMENT ( #160, #112, ( #189 ) ) ;
#215 = FACE_OUTER_BOUND ( 'NONE', #138, .T. ) ;
#216 = LINE ( 'NONE', #120, #232 ) ;
#217 =( GEOMETRIC_REPRESENTATION_CONTEXT ( 3 ) GLOBAL_UNCERTAINTY_ASSIGNED_CONTEXT ( ( #33 ) ) GLOBAL_UNIT_ASSIGNED_CONTEXT ( ( #41, #89, #45 ) ) REPRESENTATION_CONTEXT ( 'NONE', 'WORKASPACE' ) );
#218 = LINE ( 'NONE', #188, #67 ) ;
#219 = EDGE_LOOP ( 'NONE', ( #170, #3, #193, #70 ) ) ;
#220 = CARTESIAN_POINT ( 'NONE',  ( -12.49999999999999800, 12.49999999999999600, 0.0000000000000000000 ) ) ;
#221 = VECTOR ( 'NONE', #87, 1000.000000000000000 ) ;
#222 = CARTESIAN_POINT ( 'NONE',  ( 12.49999999999999500, 12.50000000000000000, 0.0000000000000000000 ) ) ;
#223 = CC_DESIGN_DATE_AND_TIME_ASSIGNMENT ( #150, #140, ( #107 ) ) ;
#224 = DIRECTION ( 'NONE',  ( 1.387778780781445700E-016, -1.000000000000000000, 0.0000000000000000000 ) ) ;
#225 = DIRECTION ( 'NONE',  ( -1.000000000000000000, -1.387778780781445400E-016, 0.0000000000000000000 ) ) ;
#226 = CALENDAR_DATE ( 2017, 31, 1 ) ;
#227 = CALENDAR_DATE ( 2017, 31, 1 ) ;
#228 = PLANE ( 'NONE',  #182 ) ;
#229 = ORIENTED_EDGE ( 'NONE', *, *, #163, .T. ) ;
#230 = DIRECTION ( 'NONE',  ( 4.163336342344336500E-016, -1.000000000000000000, 0.0000000000000000000 ) ) ;
#231 = CC_DESIGN_APPROVAL ( #187, ( #171 ) ) ;
#232 = VECTOR ( 'NONE', #122, 1000.000000000000000 ) ;
#233 = AXIS2_PLACEMENT_3D ( 'NONE', #12, #202, #44 ) ;
#234 = CC_DESIGN_SECURITY_CLASSIFICATION ( #189, ( #171 ) ) ;
#235 = ADVANCED_FACE ( 'NONE', ( #215 ), #162, .F. ) ;
#236 = ORIENTED_EDGE ( 'NONE', *, *, #4, .T. ) ;
#237 = CC_DESIGN_PERSON_AND_ORGANIZATION_ASSIGNMENT ( #53, #185, ( #101 ) ) ;
ENDSEC;
END-ISO-10303-21;
