ISO-10303-21;
HEADER;
FILE_DESCRIPTION (( 'STEP AP203' ),
    '1' );
FILE_NAME ('Web Model 14967_14967.step',
    '2020-07-27T18:48:14',
    ( '' ),
    ( '' ),
    'SwSTEP 2.0',
    'SolidWorks 2018',
    '' );
FILE_SCHEMA (( 'CONFIG_CONTROL_DESIGN' ));
ENDSEC;

DATA;
#1 = ORIENTED_EDGE ( 'NONE', *, *, #53, .T. ) ;
#2 = PRODUCT_DEFINITION_FORMATION_WITH_SPECIFIED_SOURCE ( 'ANY', '', #164, .NOT_KNOWN. ) ;
#3 = LOCAL_TIME ( 14, 48, 14.00000000000000000, #88 ) ;
#4 = DATE_AND_TIME ( #20, #42 ) ;
#5 = APPROVAL ( #143, 'UNSPECIFIED' ) ;
#6 = AXIS2_PLACEMENT_3D ( 'NONE', #70, #152, #11 ) ;
#7 = ORIENTED_EDGE ( 'NONE', *, *, #160, .T. ) ;
#8 = PERSON ( 'UNSPECIFIED', 'UNSPECIFIED', 'UNSPECIFIED', ('UNSPECIFIED'), ('UNSPECIFIED'), ('UNSPECIFIED') ) ;
#9 = FACE_OUTER_BOUND ( 'NONE', #80, .T. ) ;
#10 = DIRECTION ( 'NONE',  ( 1.000000000000000000, 0.0000000000000000000, 0.0000000000000000000 ) ) ;
#11 = DIRECTION ( 'NONE',  ( 0.0000000000000000000, 0.0000000000000000000, 1.000000000000000000 ) ) ;
#12 = EDGE_LOOP ( 'NONE', ( #112, #54, #150, #22 ) ) ;
#13 = VERTEX_POINT ( 'NONE', #137 ) ;
#14 = CARTESIAN_POINT ( 'NONE',  ( 2.000000000000000000, 0.0000000000000000000, 0.0000000000000000000 ) ) ;
#15 = ADVANCED_BREP_SHAPE_REPRESENTATION ( 'Web Model 14967_14967', ( #25, #50 ), #67 ) ;
#16 = CARTESIAN_POINT ( 'NONE',  ( 2.000000000000000000, 0.0000000000000000000, 0.0000000000000000000 ) ) ;
#17 = PERSON_AND_ORGANIZATION_ROLE ( 'design_supplier' ) ;
#18 = PERSON_AND_ORGANIZATION_ROLE ( 'creator' ) ;
#19 = VERTEX_POINT ( 'NONE', #69 ) ;
#20 = CALENDAR_DATE ( 2020, 27, 7 ) ;
#21 = SECURITY_CLASSIFICATION ( '', '', #131 ) ;
#22 = ORIENTED_EDGE ( 'NONE', *, *, #170, .T. ) ;
#23 = SHAPE_DEFINITION_REPRESENTATION ( #36, #15 ) ;
#24 = AXIS2_PLACEMENT_3D ( 'NONE', #119, #109, #74 ) ;
#25 = MANIFOLD_SOLID_BREP ( 'Boss-Extrude1', #47 ) ;
#26 = APPROVAL_ROLE ( '' ) ;
#27 = MECHANICAL_CONTEXT ( 'NONE', #97, 'mechanical' ) ;
#28 = DIRECTION ( 'NONE',  ( 1.000000000000000000, 0.0000000000000000000, 0.0000000000000000000 ) ) ;
#29 = FACE_OUTER_BOUND ( 'NONE', #87, .T. ) ;
#30 = PERSON_AND_ORGANIZATION_ROLE ( 'classification_officer' ) ;
#31 = APPROVAL_PERSON_ORGANIZATION ( #108, #121, #138 ) ;
#32 = UNCERTAINTY_MEASURE_WITH_UNIT (LENGTH_MEASURE( 1.000000000000000082E-05 ), #57, 'distance_accuracy_value', 'NONE');
#33 = VECTOR ( 'NONE', #128, 1000.000000000000000 ) ;
#34 = CC_DESIGN_PERSON_AND_ORGANIZATION_ASSIGNMENT ( #38, #30, ( #21 ) ) ;
#35 = DATE_AND_TIME ( #40, #100 ) ;
#36 = PRODUCT_DEFINITION_SHAPE ( 'NONE', 'NONE',  #169 ) ;
#37 = AXIS2_PLACEMENT_3D ( 'NONE', #14, #141, #116 ) ;
#38 = PERSON_AND_ORGANIZATION ( #8, #51 ) ;
#39 = AXIS2_PLACEMENT_3D ( 'NONE', #75, #106, #46 ) ;
#40 = CALENDAR_DATE ( 2020, 27, 7 ) ;
#41 = DATE_TIME_ROLE ( 'classification_date' ) ;
#42 = LOCAL_TIME ( 14, 48, 14.00000000000000000, #110 ) ;
#43 = AXIS2_PLACEMENT_3D ( 'NONE', #98, #130, #82 ) ;
#44 = DATE_TIME_ROLE ( 'creation_date' ) ;
#45 = COORDINATED_UNIVERSAL_TIME_OFFSET ( 5, 0, .BEHIND. ) ;
#46 = DIRECTION ( 'NONE',  ( 0.0000000000000000000, 0.0000000000000000000, -1.000000000000000000 ) ) ;
#47 = CLOSED_SHELL ( 'NONE', ( #68, #153, #145, #142 ) ) ;
#48 = CC_DESIGN_APPROVAL ( #5, ( #169 ) ) ;
#49 = ORIENTED_EDGE ( 'NONE', *, *, #151, .T. ) ;
#50 = AXIS2_PLACEMENT_3D ( 'NONE', #107, #61, #28 ) ;
#51 = ORGANIZATION ( 'UNSPECIFIED', 'UNSPECIFIED', '' ) ;
#52 = VECTOR ( 'NONE', #91, 1000.000000000000000 ) ;
#53 = EDGE_CURVE ( 'NONE', #144, #19, #115, .T. ) ;
#54 = ORIENTED_EDGE ( 'NONE', *, *, #81, .F. ) ;
#55 = CC_DESIGN_DATE_AND_TIME_ASSIGNMENT ( #129, #41, ( #21 ) ) ;
#56 = APPROVAL_STATUS ( 'not_yet_approved' ) ;
#57 =( LENGTH_UNIT ( ) NAMED_UNIT ( * ) SI_UNIT ( .MILLI., .METRE. ) );
#58 = APPLICATION_CONTEXT ( 'configuration controlled 3d designs of mechanical parts and assemblies' ) ;
#59 = PRODUCT_RELATED_PRODUCT_CATEGORY ( 'detail', '', ( #164 ) ) ;
#60 = CARTESIAN_POINT ( 'NONE',  ( 2.000000000000000000, 0.0000000000000000000, 0.0000000000000000000 ) ) ;
#61 = DIRECTION ( 'NONE',  ( 0.0000000000000000000, 0.0000000000000000000, 1.000000000000000000 ) ) ;
#62 = EDGE_CURVE ( 'NONE', #19, #13, #85, .T. ) ;
#63 = APPROVAL_PERSON_ORGANIZATION ( #168, #78, #118 ) ;
#64 = CYLINDRICAL_SURFACE ( 'NONE', #6, 37.50000000000000711 ) ;
#65 = AXIS2_PLACEMENT_3D ( 'NONE', #126, #10, #135 ) ;
#66 = CALENDAR_DATE ( 2020, 27, 7 ) ;
#67 =( GEOMETRIC_REPRESENTATION_CONTEXT ( 3 ) GLOBAL_UNCERTAINTY_ASSIGNED_CONTEXT ( ( #32 ) ) GLOBAL_UNIT_ASSIGNED_CONTEXT ( ( #57, #83, #171 ) ) REPRESENTATION_CONTEXT ( 'NONE', 'WORKASPACE' ) );
#68 = ADVANCED_FACE ( 'NONE', ( #9 ), #64, .T. ) ;
#69 = CARTESIAN_POINT ( 'NONE',  ( 2.000000000000000000, 0.0000000000000000000, 37.50000000000000711 ) ) ;
#70 = CARTESIAN_POINT ( 'NONE',  ( 2.000000000000000000, 0.0000000000000000000, 0.0000000000000000000 ) ) ;
#71 = APPROVAL_PERSON_ORGANIZATION ( #102, #5, #26 ) ;
#72 = AXIS2_PLACEMENT_3D ( 'NONE', #16, #105, #173 ) ;
#73 = PERSON_AND_ORGANIZATION_ROLE ( 'design_owner' ) ;
#74 = DIRECTION ( 'NONE',  ( 0.0000000000000000000, 0.0000000000000000000, -1.000000000000000000 ) ) ;
#75 = CARTESIAN_POINT ( 'NONE',  ( -2.000000000000000000, 0.0000000000000000000, 0.0000000000000000000 ) ) ;
#76 = APPROVAL_STATUS ( 'not_yet_approved' ) ;
#77 = PERSON_AND_ORGANIZATION ( #8, #51 ) ;
#78 = APPROVAL ( #76, 'UNSPECIFIED' ) ;
#79 = APPROVAL_DATE_TIME ( #134, #78 ) ;
#80 = EDGE_LOOP ( 'NONE', ( #101, #49, #7, #146 ) ) ;
#81 = EDGE_CURVE ( 'NONE', #19, #144, #165, .T. ) ;
#82 = DIRECTION ( 'NONE',  ( 0.0000000000000000000, 0.0000000000000000000, -1.000000000000000000 ) ) ;
#83 =( NAMED_UNIT ( * ) PLANE_ANGLE_UNIT ( ) SI_UNIT ( $, .RADIAN. ) );
#84 = DIRECTION ( 'NONE',  ( 1.000000000000000000, 0.0000000000000000000, 0.0000000000000000000 ) ) ;
#85 = LINE ( 'NONE', #103, #52 ) ;
#86 = VERTEX_POINT ( 'NONE', #96 ) ;
#87 = EDGE_LOOP ( 'NONE', ( #162, #133 ) ) ;
#88 = COORDINATED_UNIVERSAL_TIME_OFFSET ( 5, 0, .BEHIND. ) ;
#89 = LOCAL_TIME ( 14, 48, 14.00000000000000000, #45 ) ;
#90 = CC_DESIGN_DATE_AND_TIME_ASSIGNMENT ( #4, #44, ( #169 ) ) ;
#91 = DIRECTION ( 'NONE',  ( -1.000000000000000000, -0.0000000000000000000, -0.0000000000000000000 ) ) ;
#92 = EDGE_LOOP ( 'NONE', ( #93, #1 ) ) ;
#93 = ORIENTED_EDGE ( 'NONE', *, *, #81, .T. ) ;
#94 = CARTESIAN_POINT ( 'NONE',  ( 2.000000000000000000, 4.592425496802575156E-15, -37.50000000000000711 ) ) ;
#95 = COORDINATED_UNIVERSAL_TIME_OFFSET ( 5, 0, .BEHIND. ) ;
#96 = CARTESIAN_POINT ( 'NONE',  ( -2.000000000000000000, 4.592425496802575156E-15, -37.50000000000000711 ) ) ;
#97 = APPLICATION_CONTEXT ( 'configuration controlled 3d designs of mechanical parts and assemblies' ) ;
#98 = CARTESIAN_POINT ( 'NONE',  ( -2.000000000000000000, 0.0000000000000000000, 0.0000000000000000000 ) ) ;
#99 = CC_DESIGN_SECURITY_CLASSIFICATION ( #21, ( #2 ) ) ;
#100 = LOCAL_TIME ( 14, 48, 14.00000000000000000, #95 ) ;
#101 = ORIENTED_EDGE ( 'NONE', *, *, #53, .F. ) ;
#102 = PERSON_AND_ORGANIZATION ( #8, #51 ) ;
#103 = CARTESIAN_POINT ( 'NONE',  ( 2.000000000000000000, 0.0000000000000000000, 37.50000000000000711 ) ) ;
#104 = APPROVAL_DATE_TIME ( #35, #121 ) ;
#105 = DIRECTION ( 'NONE',  ( 1.000000000000000000, 0.0000000000000000000, 0.0000000000000000000 ) ) ;
#106 = DIRECTION ( 'NONE',  ( 1.000000000000000000, 0.0000000000000000000, 0.0000000000000000000 ) ) ;
#107 = CARTESIAN_POINT ( 'NONE',  ( 0.0000000000000000000, 0.0000000000000000000, 0.0000000000000000000 ) ) ;
#108 = PERSON_AND_ORGANIZATION ( #8, #51 ) ;
#109 = DIRECTION ( 'NONE',  ( 1.000000000000000000, 0.0000000000000000000, 0.0000000000000000000 ) ) ;
#110 = COORDINATED_UNIVERSAL_TIME_OFFSET ( 5, 0, .BEHIND. ) ;
#111 = CC_DESIGN_PERSON_AND_ORGANIZATION_ASSIGNMENT ( #175, #17, ( #2 ) ) ;
#112 = ORIENTED_EDGE ( 'NONE', *, *, #151, .F. ) ;
#113 = PERSON_AND_ORGANIZATION ( #8, #51 ) ;
#114 = CC_DESIGN_PERSON_AND_ORGANIZATION_ASSIGNMENT ( #77, #157, ( #169 ) ) ;
#115 = CIRCLE ( 'NONE', #65, 37.50000000000000711 ) ;
#116 = DIRECTION ( 'NONE',  ( 0.0000000000000000000, 0.0000000000000000000, 1.000000000000000000 ) ) ;
#117 = APPROVAL_DATE_TIME ( #123, #5 ) ;
#118 = APPROVAL_ROLE ( '' ) ;
#119 = CARTESIAN_POINT ( 'NONE',  ( -2.000000000000000000, 0.0000000000000000000, 0.0000000000000000000 ) ) ;
#120 = CC_DESIGN_APPROVAL ( #78, ( #2 ) ) ;
#121 = APPROVAL ( #56, 'UNSPECIFIED' ) ;
#122 = CIRCLE ( 'NONE', #24, 37.50000000000000711 ) ;
#123 = DATE_AND_TIME ( #148, #89 ) ;
#124 = FACE_OUTER_BOUND ( 'NONE', #92, .T. ) ;
#125 = LOCAL_TIME ( 14, 48, 14.00000000000000000, #132 ) ;
#126 = CARTESIAN_POINT ( 'NONE',  ( 2.000000000000000000, 0.0000000000000000000, 0.0000000000000000000 ) ) ;
#127 = PLANE ( 'NONE',  #154 ) ;
#128 = DIRECTION ( 'NONE',  ( -1.000000000000000000, -0.0000000000000000000, -0.0000000000000000000 ) ) ;
#129 = DATE_AND_TIME ( #156, #3 ) ;
#130 = DIRECTION ( 'NONE',  ( 1.000000000000000000, 0.0000000000000000000, 0.0000000000000000000 ) ) ;
#131 = SECURITY_CLASSIFICATION_LEVEL ( 'unclassified' ) ;
#132 = COORDINATED_UNIVERSAL_TIME_OFFSET ( 5, 0, .BEHIND. ) ;
#133 = ORIENTED_EDGE ( 'NONE', *, *, #160, .F. ) ;
#134 = DATE_AND_TIME ( #66, #125 ) ;
#135 = DIRECTION ( 'NONE',  ( 0.0000000000000000000, 0.0000000000000000000, -1.000000000000000000 ) ) ;
#136 = CIRCLE ( 'NONE', #43, 37.50000000000000711 ) ;
#137 = CARTESIAN_POINT ( 'NONE',  ( -2.000000000000000000, 0.0000000000000000000, 37.50000000000000711 ) ) ;
#138 = APPROVAL_ROLE ( '' ) ;
#139 = APPLICATION_PROTOCOL_DEFINITION ( 'international standard', 'config_control_design', 1994, #97 ) ;
#140 = APPLICATION_PROTOCOL_DEFINITION ( 'international standard', 'config_control_design', 1994, #58 ) ;
#141 = DIRECTION ( 'NONE',  ( -1.000000000000000000, -0.0000000000000000000, -0.0000000000000000000 ) ) ;
#142 = ADVANCED_FACE ( 'NONE', ( #29 ), #158, .F. ) ;
#143 = APPROVAL_STATUS ( 'not_yet_approved' ) ;
#144 = VERTEX_POINT ( 'NONE', #94 ) ;
#145 = ADVANCED_FACE ( 'NONE', ( #124 ), #127, .T. ) ;
#146 = ORIENTED_EDGE ( 'NONE', *, *, #62, .F. ) ;
#147 = CYLINDRICAL_SURFACE ( 'NONE', #37, 37.50000000000000711 ) ;
#148 = CALENDAR_DATE ( 2020, 27, 7 ) ;
#149 = CC_DESIGN_APPROVAL ( #121, ( #21 ) ) ;
#150 = ORIENTED_EDGE ( 'NONE', *, *, #62, .T. ) ;
#151 = EDGE_CURVE ( 'NONE', #144, #86, #163, .T. ) ;
#152 = DIRECTION ( 'NONE',  ( -1.000000000000000000, -0.0000000000000000000, -0.0000000000000000000 ) ) ;
#153 = ADVANCED_FACE ( 'NONE', ( #172 ), #147, .T. ) ;
#154 = AXIS2_PLACEMENT_3D ( 'NONE', #60, #84, #155 ) ;
#155 = DIRECTION ( 'NONE',  ( 0.0000000000000000000, 0.0000000000000000000, -1.000000000000000000 ) ) ;
#156 = CALENDAR_DATE ( 2020, 27, 7 ) ;
#157 = PERSON_AND_ORGANIZATION_ROLE ( 'creator' ) ;
#158 = PLANE ( 'NONE',  #39 ) ;
#159 = CC_DESIGN_PERSON_AND_ORGANIZATION_ASSIGNMENT ( #113, #18, ( #2 ) ) ;
#160 = EDGE_CURVE ( 'NONE', #86, #13, #136, .T. ) ;
#161 = CC_DESIGN_PERSON_AND_ORGANIZATION_ASSIGNMENT ( #166, #73, ( #164 ) ) ;
#162 = ORIENTED_EDGE ( 'NONE', *, *, #170, .F. ) ;
#163 = LINE ( 'NONE', #174, #33 ) ;
#164 = PRODUCT ( 'Web Model 14967_14967', 'Web Model 14967_14967', '', ( #27 ) ) ;
#165 = CIRCLE ( 'NONE', #72, 37.50000000000000711 ) ;
#166 = PERSON_AND_ORGANIZATION ( #8, #51 ) ;
#167 = DESIGN_CONTEXT ( 'detailed design', #58, 'design' ) ;
#168 = PERSON_AND_ORGANIZATION ( #8, #51 ) ;
#169 = PRODUCT_DEFINITION ( 'UNKNOWN', '', #2, #167 ) ;
#170 = EDGE_CURVE ( 'NONE', #13, #86, #122, .T. ) ;
#171 =( NAMED_UNIT ( * ) SI_UNIT ( $, .STERADIAN. ) SOLID_ANGLE_UNIT ( ) );
#172 = FACE_OUTER_BOUND ( 'NONE', #12, .T. ) ;
#173 = DIRECTION ( 'NONE',  ( 0.0000000000000000000, 0.0000000000000000000, -1.000000000000000000 ) ) ;
#174 = CARTESIAN_POINT ( 'NONE',  ( 2.000000000000000000, 4.592425496802575156E-15, -37.50000000000000711 ) ) ;
#175 = PERSON_AND_ORGANIZATION ( #8, #51 ) ;
ENDSEC;
END-ISO-10303-21;
