ISO-10303-21;
HEADER;
FILE_DESCRIPTION (( 'STEP AP203' ),
    '1' );
FILE_NAME ('34428_37014.step',
    '2017-09-06T15:37:15',
    ( '' ),
    ( '' ),
    'SwSTEP 2.0',
    'SolidWorks 2016',
    '' );
FILE_SCHEMA (( 'CONFIG_CONTROL_DESIGN' ));
ENDSEC;

DATA;
#1 = DIRECTION ( 'NONE',  ( 0.0000000000000000000, 0.0000000000000000000, 1.000000000000000000 ) ) ;
#2 = CARTESIAN_POINT ( 'NONE',  ( 0.0000000000000000000, 0.0000000000000000000, 0.0000000000000000000 ) ) ;
#3 = ORIENTED_EDGE ( 'NONE', *, *, #48, .F. ) ;
#4 =( LENGTH_UNIT ( ) NAMED_UNIT ( * ) SI_UNIT ( .MILLI., .METRE. ) );
#5 = APPROVAL ( #42, 'UNSPECIFIED' ) ;
#6 = CC_DESIGN_DATE_AND_TIME_ASSIGNMENT ( #124, #93, ( #128 ) ) ;
#7 = PERSON_AND_ORGANIZATION ( #159, #173 ) ;
#8 = CARTESIAN_POINT ( 'NONE',  ( -25.00000000000000000, 0.0000000000000000000, 2.000000000000000000 ) ) ;
#9 = CARTESIAN_POINT ( 'NONE',  ( 0.0000000000000000000, 0.0000000000000000000, 2.000000000000000000 ) ) ;
#10 = CIRCLE ( 'NONE', #122, 25.00000000000000000 ) ;
#11 = APPROVAL_DATE_TIME ( #56, #5 ) ;
#12 = CARTESIAN_POINT ( 'NONE',  ( 0.0000000000000000000, 0.0000000000000000000, 0.0000000000000000000 ) ) ;
#13 = COORDINATED_UNIVERSAL_TIME_OFFSET ( 5, 0, .BEHIND. ) ;
#14 = AXIS2_PLACEMENT_3D ( 'NONE', #12, #38, #54 ) ;
#15 = LOCAL_TIME ( 11, 37, 15.00000000000000000, #34 ) ;
#16 = CIRCLE ( 'NONE', #30, 25.00000000000000000 ) ;
#17 = APPROVAL_ROLE ( '' ) ;
#18 = APPROVAL_PERSON_ORGANIZATION ( #47, #5, #44 ) ;
#19 = LOCAL_TIME ( 11, 37, 15.00000000000000000, #64 ) ;
#20 = CYLINDRICAL_SURFACE ( 'NONE', #82, 25.00000000000000000 ) ;
#21 = EDGE_CURVE ( 'NONE', #144, #116, #65, .T. ) ;
#22 = DIRECTION ( 'NONE',  ( 0.0000000000000000000, 0.0000000000000000000, 1.000000000000000000 ) ) ;
#23 = DIRECTION ( 'NONE',  ( 0.0000000000000000000, 0.0000000000000000000, 1.000000000000000000 ) ) ;
#24 = DIRECTION ( 'NONE',  ( 1.000000000000000000, 0.0000000000000000000, -0.0000000000000000000 ) ) ;
#25 = CIRCLE ( 'NONE', #66, 25.00000000000000000 ) ;
#26 = APPROVAL_STATUS ( 'not_yet_approved' ) ;
#27 = APPROVAL_STATUS ( 'not_yet_approved' ) ;
#28 = COORDINATED_UNIVERSAL_TIME_OFFSET ( 5, 0, .BEHIND. ) ;
#29 = ORIENTED_EDGE ( 'NONE', *, *, #89, .F. ) ;
#30 = AXIS2_PLACEMENT_3D ( 'NONE', #101, #1, #113 ) ;
#31 = ORIENTED_EDGE ( 'NONE', *, *, #60, .T. ) ;
#32 = PRODUCT ( '34428_37014', '34428_37014', '', ( #154 ) ) ;
#33 = DIRECTION ( 'NONE',  ( 1.000000000000000000, 0.0000000000000000000, 0.0000000000000000000 ) ) ;
#34 = COORDINATED_UNIVERSAL_TIME_OFFSET ( 5, 0, .BEHIND. ) ;
#35 = PRODUCT_DEFINITION_SHAPE ( 'NONE', 'NONE',  #97 ) ;
#36 =( NAMED_UNIT ( * ) PLANE_ANGLE_UNIT ( ) SI_UNIT ( $, .RADIAN. ) );
#37 = VERTEX_POINT ( 'NONE', #104 ) ;
#38 = DIRECTION ( 'NONE',  ( 0.0000000000000000000, 0.0000000000000000000, 1.000000000000000000 ) ) ;
#39 = APPLICATION_CONTEXT ( 'configuration controlled 3d designs of mechanical parts and assemblies' ) ;
#40 = CC_DESIGN_APPROVAL ( #61, ( #128 ) ) ;
#41 = VERTEX_POINT ( 'NONE', #70 ) ;
#42 = APPROVAL_STATUS ( 'not_yet_approved' ) ;
#43 = AXIS2_PLACEMENT_3D ( 'NONE', #85, #23, #33 ) ;
#44 = APPROVAL_ROLE ( '' ) ;
#45 = EDGE_LOOP ( 'NONE', ( #31, #100 ) ) ;
#46 = UNCERTAINTY_MEASURE_WITH_UNIT (LENGTH_MEASURE( 1.000000000000000100E-005 ), #4, 'distance_accuracy_value', 'NONE');
#47 = PERSON_AND_ORGANIZATION ( #159, #173 ) ;
#48 = EDGE_CURVE ( 'NONE', #41, #37, #25, .T. ) ;
#49 = VECTOR ( 'NONE', #139, 1000.000000000000000 ) ;
#50 = CARTESIAN_POINT ( 'NONE',  ( -25.00000000000000000, 0.0000000000000000000, 0.0000000000000000000 ) ) ;
#51 = DIRECTION ( 'NONE',  ( 1.000000000000000000, 0.0000000000000000000, 0.0000000000000000000 ) ) ;
#52 = DATE_AND_TIME ( #76, #19 ) ;
#53 = PLANE ( 'NONE',  #108 ) ;
#54 = DIRECTION ( 'NONE',  ( 1.000000000000000000, 0.0000000000000000000, -0.0000000000000000000 ) ) ;
#55 =( GEOMETRIC_REPRESENTATION_CONTEXT ( 3 ) GLOBAL_UNCERTAINTY_ASSIGNED_CONTEXT ( ( #46 ) ) GLOBAL_UNIT_ASSIGNED_CONTEXT ( ( #4, #36, #168 ) ) REPRESENTATION_CONTEXT ( 'NONE', 'WORKASPACE' ) );
#56 = DATE_AND_TIME ( #87, #174 ) ;
#57 = EDGE_LOOP ( 'NONE', ( #29, #149, #135, #146 ) ) ;
#58 = PRODUCT_DEFINITION_FORMATION_WITH_SPECIFIED_SOURCE ( 'ANY', '', #32, .NOT_KNOWN. ) ;
#59 = APPROVAL_PERSON_ORGANIZATION ( #103, #115, #134 ) ;
#60 = EDGE_CURVE ( 'NONE', #37, #41, #16, .T. ) ;
#61 = APPROVAL ( #26, 'UNSPECIFIED' ) ;
#62 = CC_DESIGN_DATE_AND_TIME_ASSIGNMENT ( #52, #169, ( #97 ) ) ;
#63 = ADVANCED_FACE ( 'NONE', ( #73 ), #20, .T. ) ;
#64 = COORDINATED_UNIVERSAL_TIME_OFFSET ( 5, 0, .BEHIND. ) ;
#65 = CIRCLE ( 'NONE', #43, 25.00000000000000000 ) ;
#66 = AXIS2_PLACEMENT_3D ( 'NONE', #125, #84, #163 ) ;
#67 = DIRECTION ( 'NONE',  ( -1.000000000000000000, 0.0000000000000000000, 0.0000000000000000000 ) ) ;
#68 = EDGE_LOOP ( 'NONE', ( #3, #151, #88, #81 ) ) ;
#69 = EDGE_CURVE ( 'NONE', #116, #144, #10, .T. ) ;
#70 = CARTESIAN_POINT ( 'NONE',  ( 25.00000000000000000, 3.061616997868383000E-015, 2.000000000000000000 ) ) ;
#71 = PERSON_AND_ORGANIZATION ( #159, #173 ) ;
#72 = PLANE ( 'NONE',  #14 ) ;
#73 = FACE_OUTER_BOUND ( 'NONE', #57, .T. ) ;
#74 = SECURITY_CLASSIFICATION_LEVEL ( 'unclassified' ) ;
#75 = PERSON_AND_ORGANIZATION_ROLE ( 'creator' ) ;
#76 = CALENDAR_DATE ( 2017, 6, 9 ) ;
#77 = CC_DESIGN_PERSON_AND_ORGANIZATION_ASSIGNMENT ( #96, #117, ( #32 ) ) ;
#78 = EDGE_CURVE ( 'NONE', #37, #116, #111, .T. ) ;
#79 = APPROVAL_PERSON_ORGANIZATION ( #118, #61, #17 ) ;
#80 = ORIENTED_EDGE ( 'NONE', *, *, #21, .F. ) ;
#81 = ORIENTED_EDGE ( 'NONE', *, *, #78, .F. ) ;
#82 = AXIS2_PLACEMENT_3D ( 'NONE', #86, #140, #175 ) ;
#83 = ADVANCED_FACE ( 'NONE', ( #156 ), #53, .T. ) ;
#84 = DIRECTION ( 'NONE',  ( 0.0000000000000000000, 0.0000000000000000000, 1.000000000000000000 ) ) ;
#85 = CARTESIAN_POINT ( 'NONE',  ( 0.0000000000000000000, 0.0000000000000000000, 0.0000000000000000000 ) ) ;
#86 = CARTESIAN_POINT ( 'NONE',  ( 0.0000000000000000000, 0.0000000000000000000, 2.000000000000000000 ) ) ;
#87 = CALENDAR_DATE ( 2017, 6, 9 ) ;
#88 = ORIENTED_EDGE ( 'NONE', *, *, #21, .T. ) ;
#89 = EDGE_CURVE ( 'NONE', #41, #144, #171, .T. ) ;
#90 = ORIENTED_EDGE ( 'NONE', *, *, #69, .F. ) ;
#91 = AXIS2_PLACEMENT_3D ( 'NONE', #126, #142, #67 ) ;
#92 = PERSON_AND_ORGANIZATION_ROLE ( 'design_supplier' ) ;
#93 = DATE_TIME_ROLE ( 'classification_date' ) ;
#94 = PRODUCT_RELATED_PRODUCT_CATEGORY ( 'detail', '', ( #32 ) ) ;
#95 = APPROVAL_DATE_TIME ( #137, #115 ) ;
#96 = PERSON_AND_ORGANIZATION ( #159, #173 ) ;
#97 = PRODUCT_DEFINITION ( 'UNKNOWN', '', #58, #114 ) ;
#98 = ADVANCED_FACE ( 'NONE', ( #160 ), #170, .T. ) ;
#99 = DATE_AND_TIME ( #105, #15 ) ;
#100 = ORIENTED_EDGE ( 'NONE', *, *, #48, .T. ) ;
#101 = CARTESIAN_POINT ( 'NONE',  ( 0.0000000000000000000, 0.0000000000000000000, 2.000000000000000000 ) ) ;
#102 = ADVANCED_FACE ( 'NONE', ( #119 ), #72, .F. ) ;
#103 = PERSON_AND_ORGANIZATION ( #159, #173 ) ;
#104 = CARTESIAN_POINT ( 'NONE',  ( -25.00000000000000000, 0.0000000000000000000, 2.000000000000000000 ) ) ;
#105 = CALENDAR_DATE ( 2017, 6, 9 ) ;
#106 = APPROVAL_DATE_TIME ( #99, #61 ) ;
#107 = EDGE_LOOP ( 'NONE', ( #90, #80 ) ) ;
#108 = AXIS2_PLACEMENT_3D ( 'NONE', #9, #112, #24 ) ;
#109 = APPLICATION_CONTEXT ( 'configuration controlled 3d designs of mechanical parts and assemblies' ) ;
#110 = CLOSED_SHELL ( 'NONE', ( #98, #63, #83, #102 ) ) ;
#111 = LINE ( 'NONE', #8, #129 ) ;
#112 = DIRECTION ( 'NONE',  ( 0.0000000000000000000, 0.0000000000000000000, 1.000000000000000000 ) ) ;
#113 = DIRECTION ( 'NONE',  ( 1.000000000000000000, 0.0000000000000000000, 0.0000000000000000000 ) ) ;
#114 = DESIGN_CONTEXT ( 'detailed design', #109, 'design' ) ;
#115 = APPROVAL ( #27, 'UNSPECIFIED' ) ;
#116 = VERTEX_POINT ( 'NONE', #50 ) ;
#117 = PERSON_AND_ORGANIZATION_ROLE ( 'design_owner' ) ;
#118 = PERSON_AND_ORGANIZATION ( #159, #173 ) ;
#119 = FACE_OUTER_BOUND ( 'NONE', #107, .T. ) ;
#120 = PERSON_AND_ORGANIZATION_ROLE ( 'creator' ) ;
#121 = APPLICATION_PROTOCOL_DEFINITION ( 'international standard', 'config_control_design', 1994, #109 ) ;
#122 = AXIS2_PLACEMENT_3D ( 'NONE', #2, #22, #51 ) ;
#123 = CC_DESIGN_SECURITY_CLASSIFICATION ( #128, ( #58 ) ) ;
#124 = DATE_AND_TIME ( #131, #148 ) ;
#125 = CARTESIAN_POINT ( 'NONE',  ( 0.0000000000000000000, 0.0000000000000000000, 2.000000000000000000 ) ) ;
#126 = CARTESIAN_POINT ( 'NONE',  ( 0.0000000000000000000, 0.0000000000000000000, 2.000000000000000000 ) ) ;
#127 = CALENDAR_DATE ( 2017, 6, 9 ) ;
#128 = SECURITY_CLASSIFICATION ( '', '', #74 ) ;
#129 = VECTOR ( 'NONE', #162, 1000.000000000000000 ) ;
#130 = MANIFOLD_SOLID_BREP ( 'Boss-Extrude1', #110 ) ;
#131 = CALENDAR_DATE ( 2017, 6, 9 ) ;
#132 = PERSON_AND_ORGANIZATION_ROLE ( 'classification_officer' ) ;
#133 = CC_DESIGN_APPROVAL ( #5, ( #58 ) ) ;
#134 = APPROVAL_ROLE ( '' ) ;
#135 = ORIENTED_EDGE ( 'NONE', *, *, #78, .T. ) ;
#136 = CC_DESIGN_APPROVAL ( #115, ( #97 ) ) ;
#137 = DATE_AND_TIME ( #127, #167 ) ;
#138 = CC_DESIGN_PERSON_AND_ORGANIZATION_ASSIGNMENT ( #143, #132, ( #128 ) ) ;
#139 = DIRECTION ( 'NONE',  ( -0.0000000000000000000, -0.0000000000000000000, -1.000000000000000000 ) ) ;
#140 = DIRECTION ( 'NONE',  ( -0.0000000000000000000, -0.0000000000000000000, -1.000000000000000000 ) ) ;
#141 = ADVANCED_BREP_SHAPE_REPRESENTATION ( '34428_37014', ( #130, #153 ), #55 ) ;
#142 = DIRECTION ( 'NONE',  ( -0.0000000000000000000, -0.0000000000000000000, -1.000000000000000000 ) ) ;
#143 = PERSON_AND_ORGANIZATION ( #159, #173 ) ;
#144 = VERTEX_POINT ( 'NONE', #166 ) ;
#145 = CARTESIAN_POINT ( 'NONE',  ( 0.0000000000000000000, 0.0000000000000000000, 0.0000000000000000000 ) ) ;
#146 = ORIENTED_EDGE ( 'NONE', *, *, #69, .T. ) ;
#147 = APPLICATION_PROTOCOL_DEFINITION ( 'international standard', 'config_control_design', 1994, #39 ) ;
#148 = LOCAL_TIME ( 11, 37, 15.00000000000000000, #152 ) ;
#149 = ORIENTED_EDGE ( 'NONE', *, *, #60, .F. ) ;
#150 = CC_DESIGN_PERSON_AND_ORGANIZATION_ASSIGNMENT ( #71, #120, ( #97 ) ) ;
#151 = ORIENTED_EDGE ( 'NONE', *, *, #89, .T. ) ;
#152 = COORDINATED_UNIVERSAL_TIME_OFFSET ( 5, 0, .BEHIND. ) ;
#153 = AXIS2_PLACEMENT_3D ( 'NONE', #145, #165, #172 ) ;
#154 = MECHANICAL_CONTEXT ( 'NONE', #39, 'mechanical' ) ;
#155 = SHAPE_DEFINITION_REPRESENTATION ( #35, #141 ) ;
#156 = FACE_OUTER_BOUND ( 'NONE', #45, .T. ) ;
#157 = CC_DESIGN_PERSON_AND_ORGANIZATION_ASSIGNMENT ( #7, #75, ( #58 ) ) ;
#158 = PERSON_AND_ORGANIZATION ( #159, #173 ) ;
#159 = PERSON ( 'UNSPECIFIED', 'UNSPECIFIED', 'UNSPECIFIED', ('UNSPECIFIED'), ('UNSPECIFIED'), ('UNSPECIFIED') ) ;
#160 = FACE_OUTER_BOUND ( 'NONE', #68, .T. ) ;
#161 = CARTESIAN_POINT ( 'NONE',  ( 25.00000000000000000, 3.061616997868383000E-015, 2.000000000000000000 ) ) ;
#162 = DIRECTION ( 'NONE',  ( -0.0000000000000000000, -0.0000000000000000000, -1.000000000000000000 ) ) ;
#163 = DIRECTION ( 'NONE',  ( 1.000000000000000000, 0.0000000000000000000, 0.0000000000000000000 ) ) ;
#164 = CC_DESIGN_PERSON_AND_ORGANIZATION_ASSIGNMENT ( #158, #92, ( #58 ) ) ;
#165 = DIRECTION ( 'NONE',  ( 0.0000000000000000000, 0.0000000000000000000, 1.000000000000000000 ) ) ;
#166 = CARTESIAN_POINT ( 'NONE',  ( 25.00000000000000000, 3.061616997868383000E-015, 0.0000000000000000000 ) ) ;
#167 = LOCAL_TIME ( 11, 37, 15.00000000000000000, #13 ) ;
#168 =( NAMED_UNIT ( * ) SI_UNIT ( $, .STERADIAN. ) SOLID_ANGLE_UNIT ( ) );
#169 = DATE_TIME_ROLE ( 'creation_date' ) ;
#170 = CYLINDRICAL_SURFACE ( 'NONE', #91, 25.00000000000000000 ) ;
#171 = LINE ( 'NONE', #161, #49 ) ;
#172 = DIRECTION ( 'NONE',  ( 1.000000000000000000, 0.0000000000000000000, 0.0000000000000000000 ) ) ;
#173 = ORGANIZATION ( 'UNSPECIFIED', 'UNSPECIFIED', '' ) ;
#174 = LOCAL_TIME ( 11, 37, 15.00000000000000000, #28 ) ;
#175 = DIRECTION ( 'NONE',  ( -1.000000000000000000, 0.0000000000000000000, 0.0000000000000000000 ) ) ;
ENDSEC;
END-ISO-10303-21;
