ISO-10303-21;
HEADER;
FILE_DESCRIPTION (( 'STEP AP203' ),
    '1' );
FILE_NAME ('36935_36958.step',
    '2017-08-23T20:36:03',
    ( '' ),
    ( '' ),
    'SwSTEP 2.0',
    'SolidWorks 2016',
    '' );
FILE_SCHEMA (( 'CONFIG_CONTROL_DESIGN' ));
ENDSEC;

DATA;
#1 = PRODUCT_DEFINITION_SHAPE ( 'NONE', 'NONE',  #60 ) ;
#2 = AXIS2_PLACEMENT_3D ( 'NONE', #29, #56, #77 ) ;
#3 = CC_DESIGN_PERSON_AND_ORGANIZATION_ASSIGNMENT ( #115, #41, ( #152 ) ) ;
#4 = DATE_AND_TIME ( #70, #110 ) ;
#5 = CIRCLE ( 'NONE', #168, 37.49999999999999300 ) ;
#6 = APPROVAL_STATUS ( 'not_yet_approved' ) ;
#7 = DIRECTION ( 'NONE',  ( 0.0000000000000000000, 0.0000000000000000000, 1.000000000000000000 ) ) ;
#8 = DIRECTION ( 'NONE',  ( 1.000000000000000000, 0.0000000000000000000, 0.0000000000000000000 ) ) ;
#9 = DATE_AND_TIME ( #38, #135 ) ;
#10 = ORIENTED_EDGE ( 'NONE', *, *, #102, .T. ) ;
#11 = DATE_TIME_ROLE ( 'classification_date' ) ;
#12 = ORIENTED_EDGE ( 'NONE', *, *, #142, .T. ) ;
#13 = EDGE_CURVE ( 'NONE', #49, #122, #61, .T. ) ;
#14 = CC_DESIGN_PERSON_AND_ORGANIZATION_ASSIGNMENT ( #76, #78, ( #60 ) ) ;
#15 = LOCAL_TIME ( 16, 36, 3.000000000000000000, #114 ) ;
#16 = APPROVAL ( #96, 'UNSPECIFIED' ) ;
#17 = CARTESIAN_POINT ( 'NONE',  ( -37.49999999999999300, 0.0000000000000000000, 1.500000000000000000 ) ) ;
#18 = CARTESIAN_POINT ( 'NONE',  ( -37.49999999999999300, 0.0000000000000000000, -1.500000000000000000 ) ) ;
#19 =( GEOMETRIC_REPRESENTATION_CONTEXT ( 3 ) GLOBAL_UNCERTAINTY_ASSIGNED_CONTEXT ( ( #48 ) ) GLOBAL_UNIT_ASSIGNED_CONTEXT ( ( #30, #57, #145 ) ) REPRESENTATION_CONTEXT ( 'NONE', 'WORKASPACE' ) );
#20 = DIRECTION ( 'NONE',  ( -1.000000000000000000, 0.0000000000000000000, 0.0000000000000000000 ) ) ;
#21 = APPROVAL_PERSON_ORGANIZATION ( #51, #100, #170 ) ;
#22 = FACE_OUTER_BOUND ( 'NONE', #90, .T. ) ;
#23 = APPROVAL_ROLE ( '' ) ;
#24 = CC_DESIGN_APPROVAL ( #16, ( #60 ) ) ;
#25 = ORIENTED_EDGE ( 'NONE', *, *, #102, .F. ) ;
#26 = ADVANCED_FACE ( 'NONE', ( #22 ), #129, .F. ) ;
#27 = PERSON_AND_ORGANIZATION_ROLE ( 'design_supplier' ) ;
#28 = CARTESIAN_POINT ( 'NONE',  ( 0.0000000000000000000, 0.0000000000000000000, 1.500000000000000000 ) ) ;
#29 = CARTESIAN_POINT ( 'NONE',  ( 0.0000000000000000000, 0.0000000000000000000, 1.500000000000000000 ) ) ;
#30 =( LENGTH_UNIT ( ) NAMED_UNIT ( * ) SI_UNIT ( .MILLI., .METRE. ) );
#31 = FACE_OUTER_BOUND ( 'NONE', #172, .T. ) ;
#32 = MANIFOLD_SOLID_BREP ( 'Boss-Extrude1', #35 ) ;
#33 = EDGE_CURVE ( 'NONE', #62, #122, #65, .T. ) ;
#34 = CALENDAR_DATE ( 2017, 23, 8 ) ;
#35 = CLOSED_SHELL ( 'NONE', ( #39, #143, #75, #26 ) ) ;
#36 = CARTESIAN_POINT ( 'NONE',  ( 0.0000000000000000000, 0.0000000000000000000, -1.500000000000000000 ) ) ;
#37 = CC_DESIGN_PERSON_AND_ORGANIZATION_ASSIGNMENT ( #163, #85, ( #73 ) ) ;
#38 = CALENDAR_DATE ( 2017, 23, 8 ) ;
#39 = ADVANCED_FACE ( 'NONE', ( #174 ), #105, .T. ) ;
#40 = CIRCLE ( 'NONE', #82, 37.49999999999999300 ) ;
#41 = PERSON_AND_ORGANIZATION_ROLE ( 'design_owner' ) ;
#42 = DIRECTION ( 'NONE',  ( 0.0000000000000000000, 0.0000000000000000000, 1.000000000000000000 ) ) ;
#43 = AXIS2_PLACEMENT_3D ( 'NONE', #118, #94, #20 ) ;
#44 = DIRECTION ( 'NONE',  ( -0.0000000000000000000, -0.0000000000000000000, -1.000000000000000000 ) ) ;
#45 = DIRECTION ( 'NONE',  ( 0.0000000000000000000, 0.0000000000000000000, 1.000000000000000000 ) ) ;
#46 = CARTESIAN_POINT ( 'NONE',  ( 0.0000000000000000000, 0.0000000000000000000, -1.500000000000000000 ) ) ;
#47 = AXIS2_PLACEMENT_3D ( 'NONE', #36, #159, #116 ) ;
#48 = UNCERTAINTY_MEASURE_WITH_UNIT (LENGTH_MEASURE( 1.000000000000000100E-005 ), #30, 'distance_accuracy_value', 'NONE');
#49 = VERTEX_POINT ( 'NONE', #53 ) ;
#50 = CC_DESIGN_APPROVAL ( #100, ( #73 ) ) ;
#51 = PERSON_AND_ORGANIZATION ( #139, #141 ) ;
#52 = ORIENTED_EDGE ( 'NONE', *, *, #142, .F. ) ;
#53 = CARTESIAN_POINT ( 'NONE',  ( -37.49999999999999300, 0.0000000000000000000, 1.500000000000000000 ) ) ;
#54 = CARTESIAN_POINT ( 'NONE',  ( 0.0000000000000000000, 0.0000000000000000000, -1.500000000000000000 ) ) ;
#55 = LOCAL_TIME ( 16, 36, 3.000000000000000000, #140 ) ;
#56 = DIRECTION ( 'NONE',  ( 0.0000000000000000000, 0.0000000000000000000, 1.000000000000000000 ) ) ;
#57 =( NAMED_UNIT ( * ) PLANE_ANGLE_UNIT ( ) SI_UNIT ( $, .RADIAN. ) );
#58 = CARTESIAN_POINT ( 'NONE',  ( 37.49999999999999300, 4.592425496802573600E-015, 1.500000000000000000 ) ) ;
#59 = CALENDAR_DATE ( 2017, 23, 8 ) ;
#60 = PRODUCT_DEFINITION ( 'UNKNOWN', '', #98, #175 ) ;
#61 = LINE ( 'NONE', #17, #103 ) ;
#62 = VERTEX_POINT ( 'NONE', #120 ) ;
#63 = AXIS2_PLACEMENT_3D ( 'NONE', #92, #7, #162 ) ;
#64 = DATE_AND_TIME ( #59, #55 ) ;
#65 = CIRCLE ( 'NONE', #155, 37.49999999999999300 ) ;
#66 = DIRECTION ( 'NONE',  ( 1.000000000000000000, 0.0000000000000000000, 0.0000000000000000000 ) ) ;
#67 = DIRECTION ( 'NONE',  ( 1.000000000000000000, 0.0000000000000000000, -0.0000000000000000000 ) ) ;
#68 = CC_DESIGN_DATE_AND_TIME_ASSIGNMENT ( #9, #108, ( #60 ) ) ;
#69 = CARTESIAN_POINT ( 'NONE',  ( 0.0000000000000000000, 0.0000000000000000000, 1.500000000000000000 ) ) ;
#70 = CALENDAR_DATE ( 2017, 23, 8 ) ;
#71 = CIRCLE ( 'NONE', #2, 37.49999999999999300 ) ;
#72 = SECURITY_CLASSIFICATION_LEVEL ( 'unclassified' ) ;
#73 = SECURITY_CLASSIFICATION ( '', '', #72 ) ;
#74 = EDGE_LOOP ( 'NONE', ( #10, #130 ) ) ;
#75 = ADVANCED_FACE ( 'NONE', ( #111 ), #119, .T. ) ;
#76 = PERSON_AND_ORGANIZATION ( #139, #141 ) ;
#77 = DIRECTION ( 'NONE',  ( 1.000000000000000000, 0.0000000000000000000, 0.0000000000000000000 ) ) ;
#78 = PERSON_AND_ORGANIZATION_ROLE ( 'creator' ) ;
#79 = PERSON_AND_ORGANIZATION ( #139, #141 ) ;
#80 = ORIENTED_EDGE ( 'NONE', *, *, #113, .F. ) ;
#81 = APPLICATION_CONTEXT ( 'configuration controlled 3d designs of mechanical parts and assemblies' ) ;
#82 = AXIS2_PLACEMENT_3D ( 'NONE', #106, #42, #8 ) ;
#83 = DIRECTION ( 'NONE',  ( 0.0000000000000000000, 0.0000000000000000000, 1.000000000000000000 ) ) ;
#84 = COORDINATED_UNIVERSAL_TIME_OFFSET ( 5, 0, .BEHIND. ) ;
#85 = PERSON_AND_ORGANIZATION_ROLE ( 'classification_officer' ) ;
#86 = PRODUCT_RELATED_PRODUCT_CATEGORY ( 'detail', '', ( #152 ) ) ;
#87 = CALENDAR_DATE ( 2017, 23, 8 ) ;
#88 = APPROVAL_DATE_TIME ( #133, #100 ) ;
#89 = COORDINATED_UNIVERSAL_TIME_OFFSET ( 5, 0, .BEHIND. ) ;
#90 = EDGE_LOOP ( 'NONE', ( #52, #138 ) ) ;
#91 = CC_DESIGN_SECURITY_CLASSIFICATION ( #73, ( #98 ) ) ;
#92 = CARTESIAN_POINT ( 'NONE',  ( 0.0000000000000000000, 0.0000000000000000000, 0.0000000000000000000 ) ) ;
#93 = CYLINDRICAL_SURFACE ( 'NONE', #158, 37.49999999999999300 ) ;
#94 = DIRECTION ( 'NONE',  ( -0.0000000000000000000, -0.0000000000000000000, -1.000000000000000000 ) ) ;
#95 = APPLICATION_PROTOCOL_DEFINITION ( 'international standard', 'config_control_design', 1994, #81 ) ;
#96 = APPROVAL_STATUS ( 'not_yet_approved' ) ;
#97 = ORIENTED_EDGE ( 'NONE', *, *, #171, .T. ) ;
#98 = PRODUCT_DEFINITION_FORMATION_WITH_SPECIFIED_SOURCE ( 'ANY', '', #152, .NOT_KNOWN. ) ;
#99 = APPROVAL_PERSON_ORGANIZATION ( #101, #151, #160 ) ;
#100 = APPROVAL ( #121, 'UNSPECIFIED' ) ;
#101 = PERSON_AND_ORGANIZATION ( #139, #141 ) ;
#102 = EDGE_CURVE ( 'NONE', #49, #157, #40, .T. ) ;
#103 = VECTOR ( 'NONE', #128, 1000.000000000000000 ) ;
#104 = APPROVAL_DATE_TIME ( #64, #151 ) ;
#105 = CYLINDRICAL_SURFACE ( 'NONE', #43, 37.49999999999999300 ) ;
#106 = CARTESIAN_POINT ( 'NONE',  ( 0.0000000000000000000, 0.0000000000000000000, 1.500000000000000000 ) ) ;
#107 = MECHANICAL_CONTEXT ( 'NONE', #81, 'mechanical' ) ;
#108 = DATE_TIME_ROLE ( 'creation_date' ) ;
#109 = COORDINATED_UNIVERSAL_TIME_OFFSET ( 5, 0, .BEHIND. ) ;
#110 = LOCAL_TIME ( 16, 36, 3.000000000000000000, #84 ) ;
#111 = FACE_OUTER_BOUND ( 'NONE', #74, .T. ) ;
#112 = PERSON_AND_ORGANIZATION ( #139, #141 ) ;
#113 = EDGE_CURVE ( 'NONE', #157, #49, #71, .T. ) ;
#114 = COORDINATED_UNIVERSAL_TIME_OFFSET ( 5, 0, .BEHIND. ) ;
#115 = PERSON_AND_ORGANIZATION ( #139, #141 ) ;
#116 = DIRECTION ( 'NONE',  ( 1.000000000000000000, 0.0000000000000000000, -0.0000000000000000000 ) ) ;
#117 = PERSON_AND_ORGANIZATION_ROLE ( 'creator' ) ;
#118 = CARTESIAN_POINT ( 'NONE',  ( 0.0000000000000000000, 0.0000000000000000000, 1.500000000000000000 ) ) ;
#119 = PLANE ( 'NONE',  #137 ) ;
#120 = CARTESIAN_POINT ( 'NONE',  ( 37.49999999999999300, 4.592425496802573600E-015, -1.500000000000000000 ) ) ;
#121 = APPROVAL_STATUS ( 'not_yet_approved' ) ;
#122 = VERTEX_POINT ( 'NONE', #18 ) ;
#123 = CC_DESIGN_PERSON_AND_ORGANIZATION_ASSIGNMENT ( #125, #117, ( #98 ) ) ;
#124 = ORIENTED_EDGE ( 'NONE', *, *, #171, .F. ) ;
#125 = PERSON_AND_ORGANIZATION ( #139, #141 ) ;
#126 = LINE ( 'NONE', #58, #154 ) ;
#127 = CC_DESIGN_PERSON_AND_ORGANIZATION_ASSIGNMENT ( #79, #27, ( #98 ) ) ;
#128 = DIRECTION ( 'NONE',  ( -0.0000000000000000000, -0.0000000000000000000, -1.000000000000000000 ) ) ;
#129 = PLANE ( 'NONE',  #47 ) ;
#130 = ORIENTED_EDGE ( 'NONE', *, *, #113, .T. ) ;
#131 = DIRECTION ( 'NONE',  ( -0.0000000000000000000, -0.0000000000000000000, -1.000000000000000000 ) ) ;
#132 = ORIENTED_EDGE ( 'NONE', *, *, #13, .T. ) ;
#133 = DATE_AND_TIME ( #34, #15 ) ;
#134 = ADVANCED_BREP_SHAPE_REPRESENTATION ( '36935_36958', ( #32, #63 ), #19 ) ;
#135 = LOCAL_TIME ( 16, 36, 3.000000000000000000, #109 ) ;
#136 = ORIENTED_EDGE ( 'NONE', *, *, #13, .F. ) ;
#137 = AXIS2_PLACEMENT_3D ( 'NONE', #28, #45, #67 ) ;
#138 = ORIENTED_EDGE ( 'NONE', *, *, #33, .F. ) ;
#139 = PERSON ( 'UNSPECIFIED', 'UNSPECIFIED', 'UNSPECIFIED', ('UNSPECIFIED'), ('UNSPECIFIED'), ('UNSPECIFIED') ) ;
#140 = COORDINATED_UNIVERSAL_TIME_OFFSET ( 5, 0, .BEHIND. ) ;
#141 = ORGANIZATION ( 'UNSPECIFIED', 'UNSPECIFIED', '' ) ;
#142 = EDGE_CURVE ( 'NONE', #122, #62, #5, .T. ) ;
#143 = ADVANCED_FACE ( 'NONE', ( #31 ), #93, .T. ) ;
#144 = APPROVAL_DATE_TIME ( #4, #16 ) ;
#145 =( NAMED_UNIT ( * ) SI_UNIT ( $, .STERADIAN. ) SOLID_ANGLE_UNIT ( ) );
#146 = DIRECTION ( 'NONE',  ( 0.0000000000000000000, 0.0000000000000000000, 1.000000000000000000 ) ) ;
#147 = CARTESIAN_POINT ( 'NONE',  ( 37.49999999999999300, 4.592425496802573600E-015, 1.500000000000000000 ) ) ;
#148 = SHAPE_DEFINITION_REPRESENTATION ( #1, #134 ) ;
#149 = APPLICATION_CONTEXT ( 'configuration controlled 3d designs of mechanical parts and assemblies' ) ;
#150 = APPROVAL_PERSON_ORGANIZATION ( #112, #16, #23 ) ;
#151 = APPROVAL ( #6, 'UNSPECIFIED' ) ;
#152 = PRODUCT ( '36935_36958', '36935_36958', '', ( #107 ) ) ;
#153 = DATE_AND_TIME ( #87, #156 ) ;
#154 = VECTOR ( 'NONE', #131, 1000.000000000000000 ) ;
#155 = AXIS2_PLACEMENT_3D ( 'NONE', #46, #83, #166 ) ;
#156 = LOCAL_TIME ( 16, 36, 3.000000000000000000, #89 ) ;
#157 = VERTEX_POINT ( 'NONE', #147 ) ;
#158 = AXIS2_PLACEMENT_3D ( 'NONE', #69, #44, #165 ) ;
#159 = DIRECTION ( 'NONE',  ( 0.0000000000000000000, 0.0000000000000000000, 1.000000000000000000 ) ) ;
#160 = APPROVAL_ROLE ( '' ) ;
#161 = CC_DESIGN_DATE_AND_TIME_ASSIGNMENT ( #153, #11, ( #73 ) ) ;
#162 = DIRECTION ( 'NONE',  ( 1.000000000000000000, 0.0000000000000000000, 0.0000000000000000000 ) ) ;
#163 = PERSON_AND_ORGANIZATION ( #139, #141 ) ;
#164 = ORIENTED_EDGE ( 'NONE', *, *, #33, .T. ) ;
#165 = DIRECTION ( 'NONE',  ( -1.000000000000000000, 0.0000000000000000000, 0.0000000000000000000 ) ) ;
#166 = DIRECTION ( 'NONE',  ( 1.000000000000000000, 0.0000000000000000000, 0.0000000000000000000 ) ) ;
#167 = APPLICATION_PROTOCOL_DEFINITION ( 'international standard', 'config_control_design', 1994, #149 ) ;
#168 = AXIS2_PLACEMENT_3D ( 'NONE', #54, #146, #66 ) ;
#169 = EDGE_LOOP ( 'NONE', ( #80, #97, #164, #136 ) ) ;
#170 = APPROVAL_ROLE ( '' ) ;
#171 = EDGE_CURVE ( 'NONE', #157, #62, #126, .T. ) ;
#172 = EDGE_LOOP ( 'NONE', ( #124, #25, #132, #12 ) ) ;
#173 = CC_DESIGN_APPROVAL ( #151, ( #98 ) ) ;
#174 = FACE_OUTER_BOUND ( 'NONE', #169, .T. ) ;
#175 = DESIGN_CONTEXT ( 'detailed design', #149, 'design' ) ;
ENDSEC;
END-ISO-10303-21;
