ISO-10303-21;
HEADER;
FILE_DESCRIPTION (( 'STEP AP203' ),
    '1' );
FILE_NAME ('Web Model 17231_17231.step',
    '2021-04-08T14:02:07',
    ( '' ),
    ( '' ),
    'SwSTEP 2.0',
    'SolidWorks 2018',
    '' );
FILE_SCHEMA (( 'CONFIG_CONTROL_DESIGN' ));
ENDSEC;

DATA;
#1 = PERSON_AND_ORGANIZATION ( #148, #103 ) ;
#2 = ORIENTED_EDGE ( 'NONE', *, *, #25, .F. ) ;
#3 = FACE_OUTER_BOUND ( 'NONE', #162, .T. ) ;
#4 = DIRECTION ( 'NONE',  ( 0.000000000000000000, 0.000000000000000000, 1.000000000000000000 ) ) ;
#5 = APPROVAL ( #105, 'UNSPECIFIED' ) ;
#6 = ORIENTED_EDGE ( 'NONE', *, *, #120, .T. ) ;
#7 = DIRECTION ( 'NONE',  ( 0.000000000000000000, 0.000000000000000000, 1.000000000000000000 ) ) ;
#8 = APPLICATION_CONTEXT ( 'configuration controlled 3d designs of mechanical parts and assemblies' ) ;
#9 = CARTESIAN_POINT ( 'NONE',  ( -12.69999999999999929, 0.000000000000000000, 0.5000000000000000000 ) ) ;
#10 = DATE_TIME_ROLE ( 'creation_date' ) ;
#11 = FACE_OUTER_BOUND ( 'NONE', #111, .T. ) ;
#12 = APPROVAL_STATUS ( 'not_yet_approved' ) ;
#13 = CIRCLE ( 'NONE', #165, 12.69999999999999929 ) ;
#14 = EDGE_CURVE ( 'NONE', #152, #97, #13, .T. ) ;
#15 = LOCAL_TIME ( 10, 2, 7.000000000000000000, #109 ) ;
#16 = CARTESIAN_POINT ( 'NONE',  ( 12.69999999999999929, 1.555301434917138433E-15, 0.5000000000000000000 ) ) ;
#17 = DIRECTION ( 'NONE',  ( 1.000000000000000000, 0.000000000000000000, -0.000000000000000000 ) ) ;
#18 = CC_DESIGN_PERSON_AND_ORGANIZATION_ASSIGNMENT ( #110, #67, ( #57 ) ) ;
#19 = APPROVAL_PERSON_ORGANIZATION ( #36, #82, #161 ) ;
#20 = FACE_OUTER_BOUND ( 'NONE', #28, .T. ) ;
#21 = UNCERTAINTY_MEASURE_WITH_UNIT (LENGTH_MEASURE( 1.000000000000000082E-05 ), #60, 'distance_accuracy_value', 'NONE');
#22 =( NAMED_UNIT ( * ) SI_UNIT ( $, .STERADIAN. ) SOLID_ANGLE_UNIT ( ) );
#23 = CARTESIAN_POINT ( 'NONE',  ( 0.000000000000000000, 0.000000000000000000, 0.5000000000000000000 ) ) ;
#24 = LOCAL_TIME ( 10, 2, 7.000000000000000000, #58 ) ;
#25 = EDGE_CURVE ( 'NONE', #128, #97, #80, .T. ) ;
#26 = LOCAL_TIME ( 10, 2, 7.000000000000000000, #160 ) ;
#27 = CALENDAR_DATE ( 2021, 8, 4 ) ;
#28 = EDGE_LOOP ( 'NONE', ( #71, #127 ) ) ;
#29 = COORDINATED_UNIVERSAL_TIME_OFFSET ( 5, 0, .BEHIND. ) ;
#30 = ORIENTED_EDGE ( 'NONE', *, *, #150, .T. ) ;
#31 = CARTESIAN_POINT ( 'NONE',  ( 0.000000000000000000, 0.000000000000000000, 0.000000000000000000 ) ) ;
#32 = DIRECTION ( 'NONE',  ( 0.000000000000000000, 0.000000000000000000, 1.000000000000000000 ) ) ;
#33 = DIRECTION ( 'NONE',  ( 1.000000000000000000, 0.000000000000000000, 0.000000000000000000 ) ) ;
#34 = APPROVAL_PERSON_ORGANIZATION ( #70, #55, #51 ) ;
#35 = CARTESIAN_POINT ( 'NONE',  ( -12.69999999999999929, 0.000000000000000000, 0.5000000000000000000 ) ) ;
#36 = PERSON_AND_ORGANIZATION ( #148, #103 ) ;
#37 = CLOSED_SHELL ( 'NONE', ( #65, #61, #48, #88 ) ) ;
#38 = CC_DESIGN_APPROVAL ( #55, ( #168 ) ) ;
#39 = APPROVAL_DATE_TIME ( #53, #5 ) ;
#40 = ORIENTED_EDGE ( 'NONE', *, *, #120, .F. ) ;
#41 = CC_DESIGN_PERSON_AND_ORGANIZATION_ASSIGNMENT ( #156, #142, ( #168 ) ) ;
#42 = ORIENTED_EDGE ( 'NONE', *, *, #14, .T. ) ;
#43 = PERSON_AND_ORGANIZATION ( #148, #103 ) ;
#44 = VECTOR ( 'NONE', #135, 1000.000000000000000 ) ;
#45 = ORIENTED_EDGE ( 'NONE', *, *, #14, .F. ) ;
#46 = CARTESIAN_POINT ( 'NONE',  ( 0.000000000000000000, 0.000000000000000000, 0.5000000000000000000 ) ) ;
#47 = CC_DESIGN_PERSON_AND_ORGANIZATION_ASSIGNMENT ( #121, #118, ( #168 ) ) ;
#48 = ADVANCED_FACE ( 'NONE', ( #20 ), #74, .T. ) ;
#49 = SECURITY_CLASSIFICATION ( '', '', #157 ) ;
#50 = APPLICATION_PROTOCOL_DEFINITION ( 'international standard', 'config_control_design', 1994, #92 ) ;
#51 = APPROVAL_ROLE ( '' ) ;
#52 = PRODUCT_DEFINITION_SHAPE ( 'NONE', 'NONE',  #122 ) ;
#53 = DATE_AND_TIME ( #145, #24 ) ;
#54 = CALENDAR_DATE ( 2021, 8, 4 ) ;
#55 = APPROVAL ( #12, 'UNSPECIFIED' ) ;
#56 = CIRCLE ( 'NONE', #175, 12.69999999999999929 ) ;
#57 = PRODUCT ( 'Web Model 17231_17231', 'Web Model 17231_17231', '', ( #107 ) ) ;
#58 = COORDINATED_UNIVERSAL_TIME_OFFSET ( 5, 0, .BEHIND. ) ;
#59 = CC_DESIGN_PERSON_AND_ORGANIZATION_ASSIGNMENT ( #1, #93, ( #122 ) ) ;
#60 =( LENGTH_UNIT ( ) NAMED_UNIT ( * ) SI_UNIT ( .MILLI., .METRE. ) );
#61 = ADVANCED_FACE ( 'NONE', ( #3 ), #91, .T. ) ;
#62 = DIRECTION ( 'NONE',  ( -1.000000000000000000, 0.000000000000000000, 0.000000000000000000 ) ) ;
#63 = DIRECTION ( 'NONE',  ( 1.000000000000000000, 0.000000000000000000, 0.000000000000000000 ) ) ;
#64 = LOCAL_TIME ( 10, 2, 7.000000000000000000, #29 ) ;
#65 = ADVANCED_FACE ( 'NONE', ( #68 ), #87, .T. ) ;
#66 = DIRECTION ( 'NONE',  ( 1.000000000000000000, 0.000000000000000000, -0.000000000000000000 ) ) ;
#67 = PERSON_AND_ORGANIZATION_ROLE ( 'design_owner' ) ;
#68 = FACE_OUTER_BOUND ( 'NONE', #166, .T. ) ;
#69 = DATE_AND_TIME ( #54, #117 ) ;
#70 = PERSON_AND_ORGANIZATION ( #148, #103 ) ;
#71 = ORIENTED_EDGE ( 'NONE', *, *, #170, .T. ) ;
#72 = CARTESIAN_POINT ( 'NONE',  ( 12.69999999999999929, 1.555301434917138433E-15, 0.5000000000000000000 ) ) ;
#73 = AXIS2_PLACEMENT_3D ( 'NONE', #31, #125, #143 ) ;
#74 = PLANE ( 'NONE',  #89 ) ;
#75 = VERTEX_POINT ( 'NONE', #9 ) ;
#76 = CARTESIAN_POINT ( 'NONE',  ( 0.000000000000000000, 0.000000000000000000, 0.000000000000000000 ) ) ;
#77 = CALENDAR_DATE ( 2021, 8, 4 ) ;
#78 = ORIENTED_EDGE ( 'NONE', *, *, #150, .F. ) ;
#79 = PERSON_AND_ORGANIZATION_ROLE ( 'classification_officer' ) ;
#80 = LINE ( 'NONE', #16, #44 ) ;
#81 = MANIFOLD_SOLID_BREP ( 'Boss-Extrude1', #37 ) ;
#82 = APPROVAL ( #130, 'UNSPECIFIED' ) ;
#83 = DATE_AND_TIME ( #94, #26 ) ;
#84 = AXIS2_PLACEMENT_3D ( 'NONE', #126, #86, #62 ) ;
#85 = PERSON_AND_ORGANIZATION ( #148, #103 ) ;
#86 = DIRECTION ( 'NONE',  ( -0.000000000000000000, -0.000000000000000000, -1.000000000000000000 ) ) ;
#87 = CYLINDRICAL_SURFACE ( 'NONE', #84, 12.69999999999999929 ) ;
#88 = ADVANCED_FACE ( 'NONE', ( #11 ), #154, .F. ) ;
#89 = AXIS2_PLACEMENT_3D ( 'NONE', #23, #98, #66 ) ;
#90 = DIRECTION ( 'NONE',  ( 0.000000000000000000, 0.000000000000000000, 1.000000000000000000 ) ) ;
#91 = CYLINDRICAL_SURFACE ( 'NONE', #114, 12.69999999999999929 ) ;
#92 = APPLICATION_CONTEXT ( 'configuration controlled 3d designs of mechanical parts and assemblies' ) ;
#93 = PERSON_AND_ORGANIZATION_ROLE ( 'creator' ) ;
#94 = CALENDAR_DATE ( 2021, 8, 4 ) ;
#95 = PRODUCT_RELATED_PRODUCT_CATEGORY ( 'detail', '', ( #57 ) ) ;
#96 = APPROVAL_ROLE ( '' ) ;
#97 = VERTEX_POINT ( 'NONE', #169 ) ;
#98 = DIRECTION ( 'NONE',  ( 0.000000000000000000, 0.000000000000000000, 1.000000000000000000 ) ) ;
#99 = DIRECTION ( 'NONE',  ( 1.000000000000000000, 0.000000000000000000, 0.000000000000000000 ) ) ;
#100 = CC_DESIGN_APPROVAL ( #5, ( #122 ) ) ;
#101 = CARTESIAN_POINT ( 'NONE',  ( 0.000000000000000000, 0.000000000000000000, 0.5000000000000000000 ) ) ;
#102 = DIRECTION ( 'NONE',  ( 1.000000000000000000, 0.000000000000000000, 0.000000000000000000 ) ) ;
#103 = ORGANIZATION ( 'UNSPECIFIED', 'UNSPECIFIED', '' ) ;
#104 = DIRECTION ( 'NONE',  ( -0.000000000000000000, -0.000000000000000000, -1.000000000000000000 ) ) ;
#105 = APPROVAL_STATUS ( 'not_yet_approved' ) ;
#106 = ORIENTED_EDGE ( 'NONE', *, *, #134, .F. ) ;
#107 = MECHANICAL_CONTEXT ( 'NONE', #8, 'mechanical' ) ;
#108 = DATE_TIME_ROLE ( 'classification_date' ) ;
#109 = COORDINATED_UNIVERSAL_TIME_OFFSET ( 5, 0, .BEHIND. ) ;
#110 = PERSON_AND_ORGANIZATION ( #148, #103 ) ;
#111 = EDGE_LOOP ( 'NONE', ( #45, #40 ) ) ;
#112 = APPROVAL_PERSON_ORGANIZATION ( #43, #5, #96 ) ;
#113 = APPROVAL_DATE_TIME ( #164, #55 ) ;
#114 = AXIS2_PLACEMENT_3D ( 'NONE', #115, #104, #151 ) ;
#115 = CARTESIAN_POINT ( 'NONE',  ( 0.000000000000000000, 0.000000000000000000, 0.5000000000000000000 ) ) ;
#116 = DIRECTION ( 'NONE',  ( 0.000000000000000000, 0.000000000000000000, 1.000000000000000000 ) ) ;
#117 = LOCAL_TIME ( 10, 2, 7.000000000000000000, #149 ) ;
#118 = PERSON_AND_ORGANIZATION_ROLE ( 'design_supplier' ) ;
#119 = AXIS2_PLACEMENT_3D ( 'NONE', #46, #4, #99 ) ;
#120 = EDGE_CURVE ( 'NONE', #97, #152, #167, .T. ) ;
#121 = PERSON_AND_ORGANIZATION ( #148, #103 ) ;
#122 = PRODUCT_DEFINITION ( 'UNKNOWN', '', #168, #129 ) ;
#123 = ORIENTED_EDGE ( 'NONE', *, *, #170, .F. ) ;
#124 = CC_DESIGN_DATE_AND_TIME_ASSIGNMENT ( #171, #10, ( #122 ) ) ;
#125 = DIRECTION ( 'NONE',  ( 0.000000000000000000, 0.000000000000000000, 1.000000000000000000 ) ) ;
#126 = CARTESIAN_POINT ( 'NONE',  ( 0.000000000000000000, 0.000000000000000000, 0.5000000000000000000 ) ) ;
#127 = ORIENTED_EDGE ( 'NONE', *, *, #134, .T. ) ;
#128 = VERTEX_POINT ( 'NONE', #72 ) ;
#129 = DESIGN_CONTEXT ( 'detailed design', #92, 'design' ) ;
#130 = APPROVAL_STATUS ( 'not_yet_approved' ) ;
#131 = AXIS2_PLACEMENT_3D ( 'NONE', #153, #116, #17 ) ;
#132 = CC_DESIGN_APPROVAL ( #82, ( #49 ) ) ;
#133 = SHAPE_DEFINITION_REPRESENTATION ( #52, #158 ) ;
#134 = EDGE_CURVE ( 'NONE', #128, #75, #56, .T. ) ;
#135 = DIRECTION ( 'NONE',  ( -0.000000000000000000, -0.000000000000000000, -1.000000000000000000 ) ) ;
#136 = AXIS2_PLACEMENT_3D ( 'NONE', #76, #32, #63 ) ;
#137 = CARTESIAN_POINT ( 'NONE',  ( -12.69999999999999929, 0.000000000000000000, 0.000000000000000000 ) ) ;
#138 = DIRECTION ( 'NONE',  ( -0.000000000000000000, -0.000000000000000000, -1.000000000000000000 ) ) ;
#139 = CARTESIAN_POINT ( 'NONE',  ( 0.000000000000000000, 0.000000000000000000, 0.000000000000000000 ) ) ;
#140 = VECTOR ( 'NONE', #138, 1000.000000000000000 ) ;
#141 = APPLICATION_PROTOCOL_DEFINITION ( 'international standard', 'config_control_design', 1994, #8 ) ;
#142 = PERSON_AND_ORGANIZATION_ROLE ( 'creator' ) ;
#143 = DIRECTION ( 'NONE',  ( 1.000000000000000000, 0.000000000000000000, 0.000000000000000000 ) ) ;
#144 = LINE ( 'NONE', #35, #140 ) ;
#145 = CALENDAR_DATE ( 2021, 8, 4 ) ;
#146 = CC_DESIGN_PERSON_AND_ORGANIZATION_ASSIGNMENT ( #85, #79, ( #49 ) ) ;
#147 = CC_DESIGN_DATE_AND_TIME_ASSIGNMENT ( #69, #108, ( #49 ) ) ;
#148 = PERSON ( 'UNSPECIFIED', 'UNSPECIFIED', 'UNSPECIFIED', ('UNSPECIFIED'), ('UNSPECIFIED'), ('UNSPECIFIED') ) ;
#149 = COORDINATED_UNIVERSAL_TIME_OFFSET ( 5, 0, .BEHIND. ) ;
#150 = EDGE_CURVE ( 'NONE', #75, #152, #144, .T. ) ;
#151 = DIRECTION ( 'NONE',  ( -1.000000000000000000, 0.000000000000000000, 0.000000000000000000 ) ) ;
#152 = VERTEX_POINT ( 'NONE', #137 ) ;
#153 = CARTESIAN_POINT ( 'NONE',  ( 0.000000000000000000, 0.000000000000000000, 0.000000000000000000 ) ) ;
#154 = PLANE ( 'NONE',  #131 ) ;
#155 =( NAMED_UNIT ( * ) PLANE_ANGLE_UNIT ( ) SI_UNIT ( $, .RADIAN. ) );
#156 = PERSON_AND_ORGANIZATION ( #148, #103 ) ;
#157 = SECURITY_CLASSIFICATION_LEVEL ( 'unclassified' ) ;
#158 = ADVANCED_BREP_SHAPE_REPRESENTATION ( 'Web Model 17231_17231', ( #81, #73 ), #159 ) ;
#159 =( GEOMETRIC_REPRESENTATION_CONTEXT ( 3 ) GLOBAL_UNCERTAINTY_ASSIGNED_CONTEXT ( ( #21 ) ) GLOBAL_UNIT_ASSIGNED_CONTEXT ( ( #60, #155, #22 ) ) REPRESENTATION_CONTEXT ( 'NONE', 'WORKASPACE' ) );
#160 = COORDINATED_UNIVERSAL_TIME_OFFSET ( 5, 0, .BEHIND. ) ;
#161 = APPROVAL_ROLE ( '' ) ;
#162 = EDGE_LOOP ( 'NONE', ( #2, #123, #30, #42 ) ) ;
#163 = CC_DESIGN_SECURITY_CLASSIFICATION ( #49, ( #168 ) ) ;
#164 = DATE_AND_TIME ( #27, #64 ) ;
#165 = AXIS2_PLACEMENT_3D ( 'NONE', #139, #7, #102 ) ;
#166 = EDGE_LOOP ( 'NONE', ( #106, #174, #6, #78 ) ) ;
#167 = CIRCLE ( 'NONE', #136, 12.69999999999999929 ) ;
#168 = PRODUCT_DEFINITION_FORMATION_WITH_SPECIFIED_SOURCE ( 'ANY', '', #57, .NOT_KNOWN. ) ;
#169 = CARTESIAN_POINT ( 'NONE',  ( 12.69999999999999929, 1.555301434917138433E-15, 0.000000000000000000 ) ) ;
#170 = EDGE_CURVE ( 'NONE', #75, #128, #172, .T. ) ;
#171 = DATE_AND_TIME ( #77, #15 ) ;
#172 = CIRCLE ( 'NONE', #119, 12.69999999999999929 ) ;
#173 = APPROVAL_DATE_TIME ( #83, #82 ) ;
#174 = ORIENTED_EDGE ( 'NONE', *, *, #25, .T. ) ;
#175 = AXIS2_PLACEMENT_3D ( 'NONE', #101, #90, #33 ) ;
ENDSEC;
END-ISO-10303-21;
