ISO-10303-21;
HEADER;
FILE_DESCRIPTION (( 'STEP AP214' ),
    '1' );
FILE_NAME ('3234-E0W.STEP',
    '2009-12-21T16:54:52',
    ( ' ' ),
    ( ' ' ),
    'SwSTEP 2.0',
    'SolidWorks 2009',
    '' );
FILE_SCHEMA (( 'AUTOMOTIVE_DESIGN' ));
ENDSEC;

DATA;
#1 = PRODUCT ( '3234-E0W', '3234-E0W', '', ( #260 ) ) ;
#2 = PRODUCT_DEFINITION_CONTEXT ( 'detailed design', #4, 'design' ) ;
#3 = APPLICATION_PROTOCOL_DEFINITION ( 'draft international standard', 'automotive_design', 1998, #4 ) ;
#4 = APPLICATION_CONTEXT ( 'automotive_design' ) ;
#5 = PRODUCT_DEFINITION ( 'UNKNOWN', '', #56, #2 ) ;
#6 = ORIENTED_EDGE ( 'NONE', *, *, #7, .F. ) ;
#7 = EDGE_CURVE ( 'NONE', #20, #53, #78, .T. ) ;
#8 = EDGE_LOOP ( 'NONE', ( #10, #18, #51, #6, #12 ) ) ;
#9 = VERTEX_POINT ( 'NONE', #73 ) ;
#10 = ORIENTED_EDGE ( 'NONE', *, *, #15, .T. ) ;
#11 = ADVANCED_FACE ( 'NONE', ( #72 ), #106, .T. ) ;
#12 = ORIENTED_EDGE ( 'NONE', *, *, #44, .F. ) ;
#13 = VERTEX_POINT ( 'NONE', #107 ) ;
#14 = ORIENTED_EDGE ( 'NONE', *, *, #39, .F. ) ;
#15 = EDGE_CURVE ( 'NONE', #19, #9, #100, .T. ) ;
#16 = MANIFOLD_SOLID_BREP ( 'NONE', #32 ) ;
#17 = EDGE_CURVE ( 'NONE', #9, #13, #81, .T. ) ;
#18 = ORIENTED_EDGE ( 'NONE', *, *, #17, .T. ) ;
#19 = VERTEX_POINT ( 'NONE', #133 ) ;
#20 = VERTEX_POINT ( 'NONE', #132 ) ;
#21 = ORIENTED_EDGE ( 'NONE', *, *, #27, .T. ) ;
#22 = EDGE_CURVE ( 'NONE', #45, #20, #130, .T. ) ;
#23 = EDGE_LOOP ( 'NONE', ( #24, #21, #26, #31, #30 ) ) ;
#24 = ORIENTED_EDGE ( 'NONE', *, *, #17, .F. ) ;
#25 = ADVANCED_FACE ( 'NONE', ( #125 ), #110, .T. ) ;
#26 = ORIENTED_EDGE ( 'NONE', *, *, #44, .T. ) ;
#27 = EDGE_CURVE ( 'NONE', #9, #19, #165, .T. ) ;
#28 = ORIENTED_EDGE ( 'NONE', *, *, #27, .F. ) ;
#29 = ORIENTED_EDGE ( 'NONE', *, *, #15, .F. ) ;
#30 = ORIENTED_EDGE ( 'NONE', *, *, #43, .F. ) ;
#31 = ORIENTED_EDGE ( 'NONE', *, *, #22, .F. ) ;
#32 = CLOSED_SHELL ( 'NONE', ( #11, #48, #50, #25, #36 ) ) ;
#33 = EDGE_LOOP ( 'NONE', ( #29, #28 ) ) ;
#34 = ORIENTED_EDGE ( 'NONE', *, *, #7, .T. ) ;
#35 = ORIENTED_EDGE ( 'NONE', *, *, #41, .T. ) ;
#36 = ADVANCED_FACE ( 'NONE', ( #157 ), #142, .F. ) ;
#37 = ORIENTED_EDGE ( 'NONE', *, *, #52, .T. ) ;
#38 = EDGE_LOOP ( 'NONE', ( #14, #80, #34, #35 ) ) ;
#39 = EDGE_CURVE ( 'NONE', #45, #47, #141, .T. ) ;
#40 = ORIENTED_EDGE ( 'NONE', *, *, #41, .F. ) ;
#41 = EDGE_CURVE ( 'NONE', #53, #47, #194, .T. ) ;
#42 = EDGE_LOOP ( 'NONE', ( #37, #49, #46, #40 ) ) ;
#43 = EDGE_CURVE ( 'NONE', #13, #45, #189, .T. ) ;
#44 = EDGE_CURVE ( 'NONE', #19, #20, #184, .T. ) ;
#45 = VERTEX_POINT ( 'NONE', #180 ) ;
#46 = ORIENTED_EDGE ( 'NONE', *, *, #39, .T. ) ;
#47 = VERTEX_POINT ( 'NONE', #179 ) ;
#48 = ADVANCED_FACE ( 'NONE', ( #178 ), #218, .T. ) ;
#49 = ORIENTED_EDGE ( 'NONE', *, *, #43, .T. ) ;
#50 = ADVANCED_FACE ( 'NONE', ( #216 ), #239, .T. ) ;
#51 = ORIENTED_EDGE ( 'NONE', *, *, #52, .F. ) ;
#52 = EDGE_CURVE ( 'NONE', #53, #13, #238, .T. ) ;
#53 = VERTEX_POINT ( 'NONE', #229 ) ;
#54 = PRODUCT_DEFINITION_SHAPE ( 'NONE', 'NONE',  #5 ) ;
#55 = PRODUCT_RELATED_PRODUCT_CATEGORY ( 'part', '', ( #1 ) ) ;
#56 = PRODUCT_DEFINITION_FORMATION_WITH_SPECIFIED_SOURCE ( 'ANY', '', #1, .NOT_KNOWN. ) ;
#57 =( GEOMETRIC_REPRESENTATION_CONTEXT ( 3 ) GLOBAL_UNCERTAINTY_ASSIGNED_CONTEXT ( ( #58 ) ) GLOBAL_UNIT_ASSIGNED_CONTEXT ( ( #61, #60, #59 ) ) REPRESENTATION_CONTEXT ( 'NONE', 'WORKASPACE' ) );
#58 = UNCERTAINTY_MEASURE_WITH_UNIT (LENGTH_MEASURE( 1.000000000000000100E-005 ), #61, 'distance_accuracy_value', 'NONE');
#59 =( NAMED_UNIT ( * ) SI_UNIT ( $, .STERADIAN. ) SOLID_ANGLE_UNIT ( ) );
#60 =( NAMED_UNIT ( * ) PLANE_ANGLE_UNIT ( ) SI_UNIT ( $, .RADIAN. ) );
#61 =( LENGTH_UNIT ( ) NAMED_UNIT ( * ) SI_UNIT ( .MILLI., .METRE. ) );
#62 = MECHANICAL_DESIGN_GEOMETRIC_PRESENTATION_REPRESENTATION (  '', ( #64 ), #57 ) ;
#63 = PRESENTATION_LAYER_ASSIGNMENT (  '', '', ( #64 ) ) ;
#64 = STYLED_ITEM ( 'NONE', ( #65 ), #11 ) ;
#65 = PRESENTATION_STYLE_ASSIGNMENT (( #66 ) ) ;
#66 = SURFACE_STYLE_USAGE ( .BOTH. , #67 ) ;
#67 = SURFACE_SIDE_STYLE ('',( #68 ) ) ;
#68 = SURFACE_STYLE_FILL_AREA ( #69 ) ;
#69 = FILL_AREA_STYLE ('',( #70 ) ) ;
#70 = FILL_AREA_STYLE_COLOUR ( '', #71 ) ;
#71 = COLOUR_RGB ( '',0.9568627450980391500, 0.9490196078431372100, 0.9607843137254902200 ) ;
#72 = FACE_OUTER_BOUND ( 'NONE', #8, .T. ) ;
#73 = CARTESIAN_POINT ( 'NONE',  ( -6.350000000000000500, 7.776250346772096400E-016, -2.559999999999999600 ) ) ;
#74 = DIRECTION ( 'NONE',  ( 1.000000000000000000, 0.0000000000000000000, 0.0000000000000000000 ) ) ;
#75 = DIRECTION ( 'NONE',  ( -0.0000000000000000000, -0.0000000000000000000, 1.000000000000000000 ) ) ;
#76 = CARTESIAN_POINT ( 'NONE',  ( 0.0000000000000000000, 0.0000000000000000000, -0.7695672195101319600 ) ) ;
#77 = AXIS2_PLACEMENT_3D ( 'NONE', #76, #75, #74 ) ;
#78 = CIRCLE ( 'NONE', #77, 6.350000000000001400 ) ;
#79 = SHAPE_DEFINITION_REPRESENTATION ( #54, #222 ) ;
#80 = ORIENTED_EDGE ( 'NONE', *, *, #22, .T. ) ;
#81 = LINE ( 'NONE', #136, #135 ) ;
#82 =( GEOMETRIC_REPRESENTATION_CONTEXT ( 3 ) GLOBAL_UNCERTAINTY_ASSIGNED_CONTEXT ( ( #83 ) ) GLOBAL_UNIT_ASSIGNED_CONTEXT ( ( #86, #85, #84 ) ) REPRESENTATION_CONTEXT ( 'NONE', 'WORKASPACE' ) );
#83 = UNCERTAINTY_MEASURE_WITH_UNIT (LENGTH_MEASURE( 1.000000000000000100E-005 ), #86, 'distance_accuracy_value', 'NONE');
#84 =( NAMED_UNIT ( * ) SI_UNIT ( $, .STERADIAN. ) SOLID_ANGLE_UNIT ( ) );
#85 =( NAMED_UNIT ( * ) PLANE_ANGLE_UNIT ( ) SI_UNIT ( $, .RADIAN. ) );
#86 =( LENGTH_UNIT ( ) NAMED_UNIT ( * ) SI_UNIT ( .MILLI., .METRE. ) );
#87 = MECHANICAL_DESIGN_GEOMETRIC_PRESENTATION_REPRESENTATION (  '', ( #89 ), #82 ) ;
#88 = PRESENTATION_LAYER_ASSIGNMENT (  '', '', ( #89 ) ) ;
#89 = STYLED_ITEM ( 'NONE', ( #90 ), #16 ) ;
#90 = PRESENTATION_STYLE_ASSIGNMENT (( #91 ) ) ;
#91 = SURFACE_STYLE_USAGE ( .BOTH. , #92 ) ;
#92 = SURFACE_SIDE_STYLE ('',( #93 ) ) ;
#93 = SURFACE_STYLE_FILL_AREA ( #94 ) ;
#94 = FILL_AREA_STYLE ('',( #101 ) ) ;
#95 = COLOUR_RGB ( '',0.7960784313725489700, 0.8235294117647058400, 0.9372549019607843100 ) ;
#96 = DIRECTION ( 'NONE',  ( 1.000000000000000000, 0.0000000000000000000, 0.0000000000000000000 ) ) ;
#97 = DIRECTION ( 'NONE',  ( -0.0000000000000000000, -0.0000000000000000000, 1.000000000000000000 ) ) ;
#98 = CARTESIAN_POINT ( 'NONE',  ( 0.0000000000000000000, 0.0000000000000000000, -2.559999999999999600 ) ) ;
#99 = AXIS2_PLACEMENT_3D ( 'NONE', #98, #97, #96 ) ;
#100 = CIRCLE ( 'NONE', #99, 6.350000000000000500 ) ;
#101 = FILL_AREA_STYLE_COLOUR ( '', #95 ) ;
#102 = DIRECTION ( 'NONE',  ( 1.000000000000000000, 0.0000000000000000000, 0.0000000000000000000 ) ) ;
#103 = DIRECTION ( 'NONE',  ( -0.0000000000000000000, -0.0000000000000000000, 1.000000000000000000 ) ) ;
#104 = CARTESIAN_POINT ( 'NONE',  ( 0.0000000000000000000, 0.0000000000000000000, 4.308132045400366600 ) ) ;
#105 = AXIS2_PLACEMENT_3D ( 'NONE', #104, #103, #102 ) ;
#106 = CYLINDRICAL_SURFACE ( 'NONE', #105, 6.350000000000001400 ) ;
#107 = CARTESIAN_POINT ( 'NONE',  ( -6.350000000000001400, 7.776250346772097400E-016, -0.7695672195101319600 ) ) ;
#108 = CARTESIAN_POINT ( 'NONE',  ( 0.0000000000000000000, 0.0000000000000000000, 4.308132045400366600 ) ) ;
#109 = AXIS2_PLACEMENT_3D ( 'NONE', #108, #164, #163 ) ;
#110 = CYLINDRICAL_SURFACE ( 'NONE', #109, 6.350000000000001400 ) ;
#111 =( GEOMETRIC_REPRESENTATION_CONTEXT ( 3 ) GLOBAL_UNCERTAINTY_ASSIGNED_CONTEXT ( ( #112 ) ) GLOBAL_UNIT_ASSIGNED_CONTEXT ( ( #115, #114, #113 ) ) REPRESENTATION_CONTEXT ( 'NONE', 'WORKASPACE' ) );
#112 = UNCERTAINTY_MEASURE_WITH_UNIT (LENGTH_MEASURE( 1.000000000000000100E-005 ), #115, 'distance_accuracy_value', 'NONE');
#113 =( NAMED_UNIT ( * ) SI_UNIT ( $, .STERADIAN. ) SOLID_ANGLE_UNIT ( ) );
#114 =( NAMED_UNIT ( * ) PLANE_ANGLE_UNIT ( ) SI_UNIT ( $, .RADIAN. ) );
#115 =( LENGTH_UNIT ( ) NAMED_UNIT ( * ) SI_UNIT ( .MILLI., .METRE. ) );
#116 = MECHANICAL_DESIGN_GEOMETRIC_PRESENTATION_REPRESENTATION (  '', ( #118 ), #111 ) ;
#117 = PRESENTATION_LAYER_ASSIGNMENT (  '', '', ( #118 ) ) ;
#118 = STYLED_ITEM ( 'NONE', ( #119 ), #25 ) ;
#119 = PRESENTATION_STYLE_ASSIGNMENT (( #120 ) ) ;
#120 = SURFACE_STYLE_USAGE ( .BOTH. , #121 ) ;
#121 = SURFACE_SIDE_STYLE ('',( #122 ) ) ;
#122 = SURFACE_STYLE_FILL_AREA ( #123 ) ;
#123 = FILL_AREA_STYLE ('',( #131 ) ) ;
#124 = COLOUR_RGB ( '',0.9568627450980391500, 0.9490196078431372100, 0.9607843137254902200 ) ;
#125 = FACE_OUTER_BOUND ( 'NONE', #23, .T. ) ;
#126 = DIRECTION ( 'NONE',  ( 1.000000000000000000, 0.0000000000000000000, 0.0000000000000000000 ) ) ;
#127 = DIRECTION ( 'NONE',  ( -0.0000000000000000000, -0.0000000000000000000, 1.000000000000000000 ) ) ;
#128 = CARTESIAN_POINT ( 'NONE',  ( 0.0000000000000000000, 0.0000000000000000000, -0.7695672195101319600 ) ) ;
#129 = AXIS2_PLACEMENT_3D ( 'NONE', #128, #127, #126 ) ;
#130 = CIRCLE ( 'NONE', #129, 6.350000000000001400 ) ;
#131 = FILL_AREA_STYLE_COLOUR ( '', #124 ) ;
#132 = CARTESIAN_POINT ( 'NONE',  ( 6.350000000000001400, 0.0000000000000000000, -0.7695672195101319600 ) ) ;
#133 = CARTESIAN_POINT ( 'NONE',  ( 6.350000000000000500, 0.0000000000000000000, -2.559999999999999600 ) ) ;
#134 = DIRECTION ( 'NONE',  ( -0.0000000000000000000, -0.0000000000000000000, 1.000000000000000000 ) ) ;
#135 = VECTOR ( 'NONE', #134, 1000.000000000000000 ) ;
#136 = CARTESIAN_POINT ( 'NONE',  ( -6.350000000000001400, 7.776250346772097400E-016, 4.308132045400366600 ) ) ;
#137 = DIRECTION ( 'NONE',  ( 1.000000000000000000, 0.0000000000000000000, 0.0000000000000000000 ) ) ;
#138 = DIRECTION ( 'NONE',  ( 0.0000000000000000000, -0.0000000000000000000, 1.000000000000000000 ) ) ;
#139 = CARTESIAN_POINT ( 'NONE',  ( 0.0000000000000000000, 9.405287417451671500E-016, -2.560000000000000100 ) ) ;
#140 = AXIS2_PLACEMENT_3D ( 'NONE', #139, #138, #137 ) ;
#141 = CIRCLE ( 'NONE', #198, 7.720000000000001500 ) ;
#142 = PLANE ( 'NONE',  #140 ) ;
#143 =( GEOMETRIC_REPRESENTATION_CONTEXT ( 3 ) GLOBAL_UNCERTAINTY_ASSIGNED_CONTEXT ( ( #144 ) ) GLOBAL_UNIT_ASSIGNED_CONTEXT ( ( #147, #146, #145 ) ) REPRESENTATION_CONTEXT ( 'NONE', 'WORKASPACE' ) );
#144 = UNCERTAINTY_MEASURE_WITH_UNIT (LENGTH_MEASURE( 1.000000000000000100E-005 ), #147, 'distance_accuracy_value', 'NONE');
#145 =( NAMED_UNIT ( * ) SI_UNIT ( $, .STERADIAN. ) SOLID_ANGLE_UNIT ( ) );
#146 =( NAMED_UNIT ( * ) PLANE_ANGLE_UNIT ( ) SI_UNIT ( $, .RADIAN. ) );
#147 =( LENGTH_UNIT ( ) NAMED_UNIT ( * ) SI_UNIT ( .MILLI., .METRE. ) );
#148 = MECHANICAL_DESIGN_GEOMETRIC_PRESENTATION_REPRESENTATION (  '', ( #150 ), #143 ) ;
#149 = PRESENTATION_LAYER_ASSIGNMENT (  '', '', ( #150 ) ) ;
#150 = STYLED_ITEM ( 'NONE', ( #151 ), #36 ) ;
#151 = PRESENTATION_STYLE_ASSIGNMENT (( #152 ) ) ;
#152 = SURFACE_STYLE_USAGE ( .BOTH. , #153 ) ;
#153 = SURFACE_SIDE_STYLE ('',( #154 ) ) ;
#154 = SURFACE_STYLE_FILL_AREA ( #155 ) ;
#155 = FILL_AREA_STYLE ('',( #162 ) ) ;
#156 = COLOUR_RGB ( '',0.9568627450980391500, 0.9490196078431372100, 0.9607843137254902200 ) ;
#157 = FACE_OUTER_BOUND ( 'NONE', #33, .T. ) ;
#158 = DIRECTION ( 'NONE',  ( 1.000000000000000000, 0.0000000000000000000, 0.0000000000000000000 ) ) ;
#159 = DIRECTION ( 'NONE',  ( -0.0000000000000000000, -0.0000000000000000000, 1.000000000000000000 ) ) ;
#160 = CARTESIAN_POINT ( 'NONE',  ( 0.0000000000000000000, 0.0000000000000000000, -2.559999999999999600 ) ) ;
#161 = AXIS2_PLACEMENT_3D ( 'NONE', #160, #159, #158 ) ;
#162 = FILL_AREA_STYLE_COLOUR ( '', #156 ) ;
#163 = DIRECTION ( 'NONE',  ( 1.000000000000000000, 0.0000000000000000000, 0.0000000000000000000 ) ) ;
#164 = DIRECTION ( 'NONE',  ( -0.0000000000000000000, -0.0000000000000000000, 1.000000000000000000 ) ) ;
#165 = CIRCLE ( 'NONE', #161, 6.350000000000000500 ) ;
#166 =( NAMED_UNIT ( * ) PLANE_ANGLE_UNIT ( ) SI_UNIT ( $, .RADIAN. ) );
#167 =( LENGTH_UNIT ( ) NAMED_UNIT ( * ) SI_UNIT ( .MILLI., .METRE. ) );
#168 = MECHANICAL_DESIGN_GEOMETRIC_PRESENTATION_REPRESENTATION (  '', ( #170 ), #219 ) ;
#169 = PRESENTATION_LAYER_ASSIGNMENT (  '', '', ( #170 ) ) ;
#170 = STYLED_ITEM ( 'NONE', ( #171 ), #48 ) ;
#171 = PRESENTATION_STYLE_ASSIGNMENT (( #172 ) ) ;
#172 = SURFACE_STYLE_USAGE ( .BOTH. , #173 ) ;
#173 = SURFACE_SIDE_STYLE ('',( #174 ) ) ;
#174 = SURFACE_STYLE_FILL_AREA ( #175 ) ;
#175 = FILL_AREA_STYLE ('',( #176 ) ) ;
#176 = FILL_AREA_STYLE_COLOUR ( '', #177 ) ;
#177 = COLOUR_RGB ( '',0.9568627450980391500, 0.9490196078431372100, 0.9607843137254902200 ) ;
#178 = FACE_OUTER_BOUND ( 'NONE', #42, .T. ) ;
#179 = CARTESIAN_POINT ( 'NONE',  ( 0.0000000000000000000, 4.726980525754377100E-016, 2.559999999999999600 ) ) ;
#180 = CARTESIAN_POINT ( 'NONE',  ( -7.776250346772097400E-016, -6.350000000000001400, -0.7695672195101319600 ) ) ;
#181 = DIRECTION ( 'NONE',  ( -0.0000000000000000000, -0.0000000000000000000, 1.000000000000000000 ) ) ;
#182 = VECTOR ( 'NONE', #181, 1000.000000000000000 ) ;
#183 = CARTESIAN_POINT ( 'NONE',  ( 6.350000000000001400, 0.0000000000000000000, 4.308132045400366600 ) ) ;
#184 = LINE ( 'NONE', #183, #182 ) ;
#185 = DIRECTION ( 'NONE',  ( 1.000000000000000000, 0.0000000000000000000, 0.0000000000000000000 ) ) ;
#186 = DIRECTION ( 'NONE',  ( -0.0000000000000000000, -0.0000000000000000000, 1.000000000000000000 ) ) ;
#187 = CARTESIAN_POINT ( 'NONE',  ( 0.0000000000000000000, 0.0000000000000000000, -0.7695672195101319600 ) ) ;
#188 = AXIS2_PLACEMENT_3D ( 'NONE', #187, #186, #185 ) ;
#189 = CIRCLE ( 'NONE', #188, 6.350000000000001400 ) ;
#190 = DIRECTION ( 'NONE',  ( 0.0000000000000000000, 0.0000000000000000000, -1.000000000000000000 ) ) ;
#191 = DIRECTION ( 'NONE',  ( 1.000000000000000000, 0.0000000000000000000, 0.0000000000000000000 ) ) ;
#192 = CARTESIAN_POINT ( 'NONE',  ( 0.0000000000000000000, 0.0000000000000000000, -5.160000000000001000 ) ) ;
#193 = AXIS2_PLACEMENT_3D ( 'NONE', #192, #191, #190 ) ;
#194 = CIRCLE ( 'NONE', #193, 7.720000000000001500 ) ;
#195 = DIRECTION ( 'NONE',  ( -1.224606353822377300E-016, -1.000000000000000000, 0.0000000000000000000 ) ) ;
#196 = DIRECTION ( 'NONE',  ( -1.000000000000000000, 1.224606353822377300E-016, 0.0000000000000000000 ) ) ;
#197 = CARTESIAN_POINT ( 'NONE',  ( 0.0000000000000000000, 0.0000000000000000000, -5.160000000000001000 ) ) ;
#198 = AXIS2_PLACEMENT_3D ( 'NONE', #197, #196, #195 ) ;
#199 = UNCERTAINTY_MEASURE_WITH_UNIT (LENGTH_MEASURE( 1.000000000000000100E-005 ), #202, 'distance_accuracy_value', 'NONE');
#200 =( NAMED_UNIT ( * ) SI_UNIT ( $, .STERADIAN. ) SOLID_ANGLE_UNIT ( ) );
#201 =( NAMED_UNIT ( * ) PLANE_ANGLE_UNIT ( ) SI_UNIT ( $, .RADIAN. ) );
#202 =( LENGTH_UNIT ( ) NAMED_UNIT ( * ) SI_UNIT ( .MILLI., .METRE. ) );
#203 = MECHANICAL_DESIGN_GEOMETRIC_PRESENTATION_REPRESENTATION (  '', ( #205 ), #240 ) ;
#204 = PRESENTATION_LAYER_ASSIGNMENT (  '', '', ( #205 ) ) ;
#205 = STYLED_ITEM ( 'NONE', ( #206 ), #50 ) ;
#206 = PRESENTATION_STYLE_ASSIGNMENT (( #207 ) ) ;
#207 = SURFACE_STYLE_USAGE ( .BOTH. , #208 ) ;
#208 = SURFACE_SIDE_STYLE ('',( #209 ) ) ;
#209 = SURFACE_STYLE_FILL_AREA ( #210 ) ;
#210 = FILL_AREA_STYLE ('',( #217 ) ) ;
#211 = COLOUR_RGB ( '',0.9568627450980391500, 0.9490196078431372100, 0.9607843137254902200 ) ;
#212 = DIRECTION ( 'NONE',  ( 0.0000000000000000000, 1.000000000000000000, 0.0000000000000000000 ) ) ;
#213 = DIRECTION ( 'NONE',  ( -1.000000000000000000, 0.0000000000000000000, 0.0000000000000000000 ) ) ;
#214 = CARTESIAN_POINT ( 'NONE',  ( 0.0000000000000000000, 0.0000000000000000000, -5.160000000000001000 ) ) ;
#215 = AXIS2_PLACEMENT_3D ( 'NONE', #214, #213, #212 ) ;
#216 = FACE_OUTER_BOUND ( 'NONE', #38, .T. ) ;
#217 = FILL_AREA_STYLE_COLOUR ( '', #211 ) ;
#218 = SPHERICAL_SURFACE ( 'NONE', #215, 7.720000000000001500 ) ;
#219 =( GEOMETRIC_REPRESENTATION_CONTEXT ( 3 ) GLOBAL_UNCERTAINTY_ASSIGNED_CONTEXT ( ( #220 ) ) GLOBAL_UNIT_ASSIGNED_CONTEXT ( ( #167, #166, #221 ) ) REPRESENTATION_CONTEXT ( 'NONE', 'WORKASPACE' ) );
#220 = UNCERTAINTY_MEASURE_WITH_UNIT (LENGTH_MEASURE( 1.000000000000000100E-005 ), #167, 'distance_accuracy_value', 'NONE');
#221 =( NAMED_UNIT ( * ) SI_UNIT ( $, .STERADIAN. ) SOLID_ANGLE_UNIT ( ) );
#222 = ADVANCED_BREP_SHAPE_REPRESENTATION ( '3234-E0W', ( #16, #228 ), #223 ) ;
#223 =( GEOMETRIC_REPRESENTATION_CONTEXT ( 3 ) GLOBAL_UNCERTAINTY_ASSIGNED_CONTEXT ( ( #224 ) ) GLOBAL_UNIT_ASSIGNED_CONTEXT ( ( #227, #226, #225 ) ) REPRESENTATION_CONTEXT ( 'NONE', 'WORKASPACE' ) );
#224 = UNCERTAINTY_MEASURE_WITH_UNIT (LENGTH_MEASURE( 1.000000000000000100E-005 ), #227, 'distance_accuracy_value', 'NONE');
#225 =( NAMED_UNIT ( * ) SI_UNIT ( $, .STERADIAN. ) SOLID_ANGLE_UNIT ( ) );
#226 =( NAMED_UNIT ( * ) PLANE_ANGLE_UNIT ( ) SI_UNIT ( $, .RADIAN. ) );
#227 =( LENGTH_UNIT ( ) NAMED_UNIT ( * ) SI_UNIT ( .MILLI., .METRE. ) );
#228 = AXIS2_PLACEMENT_3D ( 'NONE', #243, #242, #241 ) ;
#229 = CARTESIAN_POINT ( 'NONE',  ( 0.0000000000000000000, 6.350000000000001400, -0.7695672195101319600 ) ) ;
#230 = DIRECTION ( 'NONE',  ( 1.000000000000000000, 0.0000000000000000000, 0.0000000000000000000 ) ) ;
#231 = DIRECTION ( 'NONE',  ( -0.0000000000000000000, -0.0000000000000000000, 1.000000000000000000 ) ) ;
#232 = CARTESIAN_POINT ( 'NONE',  ( 0.0000000000000000000, 0.0000000000000000000, -0.7695672195101319600 ) ) ;
#233 = AXIS2_PLACEMENT_3D ( 'NONE', #232, #231, #230 ) ;
#234 = DIRECTION ( 'NONE',  ( 0.0000000000000000000, 1.000000000000000000, 0.0000000000000000000 ) ) ;
#235 = DIRECTION ( 'NONE',  ( -1.000000000000000000, 0.0000000000000000000, 0.0000000000000000000 ) ) ;
#236 = CARTESIAN_POINT ( 'NONE',  ( 0.0000000000000000000, 0.0000000000000000000, -5.160000000000001000 ) ) ;
#237 = AXIS2_PLACEMENT_3D ( 'NONE', #236, #235, #234 ) ;
#238 = CIRCLE ( 'NONE', #233, 6.350000000000001400 ) ;
#239 = SPHERICAL_SURFACE ( 'NONE', #237, 7.720000000000001500 ) ;
#240 =( GEOMETRIC_REPRESENTATION_CONTEXT ( 3 ) GLOBAL_UNCERTAINTY_ASSIGNED_CONTEXT ( ( #199 ) ) GLOBAL_UNIT_ASSIGNED_CONTEXT ( ( #202, #201, #200 ) ) REPRESENTATION_CONTEXT ( 'NONE', 'WORKASPACE' ) );
#241 = DIRECTION ( 'NONE',  ( 1.000000000000000000, 0.0000000000000000000, 0.0000000000000000000 ) ) ;
#242 = DIRECTION ( 'NONE',  ( 0.0000000000000000000, 0.0000000000000000000, 1.000000000000000000 ) ) ;
#243 = CARTESIAN_POINT ( 'NONE',  ( 0.0000000000000000000, 0.0000000000000000000, 0.0000000000000000000 ) ) ;
#244 =( GEOMETRIC_REPRESENTATION_CONTEXT ( 3 ) GLOBAL_UNCERTAINTY_ASSIGNED_CONTEXT ( ( #245 ) ) GLOBAL_UNIT_ASSIGNED_CONTEXT ( ( #248, #247, #246 ) ) REPRESENTATION_CONTEXT ( 'NONE', 'WORKASPACE' ) );
#245 = UNCERTAINTY_MEASURE_WITH_UNIT (LENGTH_MEASURE( 1.000000000000000100E-005 ), #248, 'distance_accuracy_value', 'NONE');
#246 =( NAMED_UNIT ( * ) SI_UNIT ( $, .STERADIAN. ) SOLID_ANGLE_UNIT ( ) );
#247 =( NAMED_UNIT ( * ) PLANE_ANGLE_UNIT ( ) SI_UNIT ( $, .RADIAN. ) );
#248 =( LENGTH_UNIT ( ) NAMED_UNIT ( * ) SI_UNIT ( .MILLI., .METRE. ) );
#249 = MECHANICAL_DESIGN_GEOMETRIC_PRESENTATION_REPRESENTATION (  '', ( #251 ), #244 ) ;
#250 = PRESENTATION_LAYER_ASSIGNMENT (  '', '', ( #251 ) ) ;
#251 = STYLED_ITEM ( 'NONE', ( #252 ), #222 ) ;
#252 = PRESENTATION_STYLE_ASSIGNMENT (( #253 ) ) ;
#253 = SURFACE_STYLE_USAGE ( .BOTH. , #254 ) ;
#254 = SURFACE_SIDE_STYLE ('',( #255 ) ) ;
#255 = SURFACE_STYLE_FILL_AREA ( #256 ) ;
#256 = FILL_AREA_STYLE ('',( #257 ) ) ;
#257 = FILL_AREA_STYLE_COLOUR ( '', #258 ) ;
#258 = COLOUR_RGB ( '',0.7960784313725489700, 0.8235294117647058400, 0.9372549019607843100 ) ;
#259 = APPLICATION_CONTEXT ( 'automotive_design' ) ;
#260 = PRODUCT_CONTEXT ( 'NONE', #259, 'mechanical' ) ;
#261 = APPLICATION_PROTOCOL_DEFINITION ( 'draft international standard', 'automotive_design', 1998, #259 ) ;
ENDSEC;
END-ISO-10303-21;
