ISO-10303-21;
HEADER;
FILE_DESCRIPTION (( 'STEP AP203' ),
    '1' );
FILE_NAME ('Web Model 66752.STEP',
    '2017-01-31T19:38:36',
    ( '' ),
    ( '' ),
    'SwSTEP 2.0',
    'SolidWorks 2016',
    '' );
FILE_SCHEMA (( 'CONFIG_CONTROL_DESIGN' ));
ENDSEC;

DATA;
#1 = CARTESIAN_POINT ( 'NONE',  ( 0.0000000000000000000, 0.0000000000000000000, 0.0000000000000000000 ) ) ;
#2 = CARTESIAN_POINT ( 'NONE',  ( -6.250000000000000000, 6.250000000000000000, 0.0008664250568376159800 ) ) ;
#3 = CARTESIAN_POINT ( 'NONE',  ( 0.0000000000000000000, 2.083333378345630000, 0.0000000000000000000 ) ) ;
#4 = DIRECTION ( 'NONE',  ( 1.000000000000000000, 0.0000000000000000000, 0.0000000000000000000 ) ) ;
#5 = CARTESIAN_POINT ( 'NONE',  ( 1.913510623667739900E-016, 8.163829937277498000E-016, 0.0008664250568376159800 ) ) ;
#6 = FACE_OUTER_BOUND ( 'NONE', #200, .T. ) ;
#7 = DATE_AND_TIME ( #260, #229 ) ;
#8 = DIRECTION ( 'NONE',  ( 0.0000000000000000000, 0.0000000000000000000, 1.000000000000000000 ) ) ;
#9 = DIRECTION ( 'NONE',  ( 1.000000000000000000, 0.0000000000000000000, 0.0000000000000000000 ) ) ;
#10 = EDGE_CURVE ( 'NONE', #220, #138, #284, .T. ) ;
#11 = CARTESIAN_POINT ( 'NONE',  ( -4.166666941949721100, -4.166666941949721100, -0.0002888081998079289800 ) ) ;
#12 = CARTESIAN_POINT ( 'NONE',  ( -6.250000000000000000, 1.653582669167220900E-015, -3.000000000000000000 ) ) ;
#13 = CARTESIAN_POINT ( 'NONE',  ( 2.083333378345630500, 2.083333378345630500, 0.0000000000000000000 ) ) ;
#14 = CARTESIAN_POINT ( 'NONE',  ( 4.166666941949721100, -4.166666941949721100, -0.0002888081998079289800 ) ) ;
#15 = APPROVAL_STATUS ( 'not_yet_approved' ) ;
#16 = DIRECTION ( 'NONE',  ( 1.000000000000000000, 0.0000000000000000000, 0.0000000000000000000 ) ) ;
#17 = CC_DESIGN_PERSON_AND_ORGANIZATION_ASSIGNMENT ( #71, #156, ( #136 ) ) ;
#18 = APPROVAL_ROLE ( '' ) ;
#19 = PRODUCT_RELATED_PRODUCT_CATEGORY ( 'detail', '', ( #57 ) ) ;
#20 = CARTESIAN_POINT ( 'NONE',  ( 0.0000000000000000000, 0.0000000000000000000, 0.0000000000000000000 ) ) ;
#21 = CARTESIAN_POINT ( 'NONE',  ( -2.083333378345630500, 2.083333378345630500, 0.0000000000000000000 ) ) ;
#22 = AXIS2_PLACEMENT_3D ( 'NONE', #81, #99, #252 ) ;
#23 = CARTESIAN_POINT ( 'NONE',  ( 2.083333378345630500, -2.083333378345630500, 0.0000000000000000000 ) ) ;
#24 = ORIENTED_EDGE ( 'NONE', *, *, #157, .F. ) ;
#25 = LOCAL_TIME ( 14, 38, 36.00000000000000000, #104 ) ;
#26 = DIRECTION ( 'NONE',  ( 1.000000000000000000, 0.0000000000000000000, 0.0000000000000000000 ) ) ;
#27 = ADVANCED_FACE ( 'NONE', ( #83 ), #234, .T. ) ;
#28 = DIRECTION ( 'NONE',  ( -1.734723475976810100E-020, -3.407667765548950100E-037, 1.000000000000000000 ) ) ;
#29 = DIRECTION ( 'NONE',  ( 0.0000000000000000000, 0.0000000000000000000, 1.000000000000000000 ) ) ;
#30 = CARTESIAN_POINT ( 'NONE',  ( 0.0000000000000000000, 0.0000000000000000000, 0.0000000000000000000 ) ) ;
#31 = LOCAL_TIME ( 14, 38, 36.00000000000000000, #215 ) ;
#32 = CARTESIAN_POINT ( 'NONE',  ( -7.654042494670956600E-016, -6.249999999999999100, 0.0008664250568376159800 ) ) ;
#33 = EDGE_CURVE ( 'NONE', #138, #217, #171, .T. ) ;
#34 = CARTESIAN_POINT ( 'NONE',  ( 0.0000000000000000000, 2.083333378345630000, 0.0000000000000000000 ) ) ;
#35 = FACE_OUTER_BOUND ( 'NONE', #228, .T. ) ;
#36 = CLOSED_SHELL ( 'NONE', ( #188, #27, #46, #76, #201 ) ) ;
#37 = CARTESIAN_POINT ( 'NONE',  ( 0.0000000000000000000, 6.250000000000000000, 0.0008664250568376159800 ) ) ;
#38 = APPLICATION_PROTOCOL_DEFINITION ( 'international standard', 'config_control_design', 1994, #59 ) ;
#39 = VERTEX_POINT ( 'NONE', #186 ) ;
#40 = APPROVAL_PERSON_ORGANIZATION ( #283, #246, #159 ) ;
#41 =( BOUNDED_SURFACE ( )  B_SPLINE_SURFACE ( 3, 2, ( 
 ( #105, #247, #191, #52, #273, #51, #144, #167, #30 ),
 ( #233, #214, #56, #218, #60, #238, #258, #13, #34 ),
 ( #173, #154, #216, #11, #86, #14, #261, #110, #107 ),
 ( #149, #240, #131, #174, #213, #172, #257, #106, #37 ) ),
 .UNSPECIFIED., .F., .T., .F. ) 
 B_SPLINE_SURFACE_WITH_KNOTS ( ( 4, 4 ),
 ( 3, 2, 2, 2, 3 ),
 ( 0.0000000000000000000, 1.000000000000000000 ),
 ( 0.0000000000000000000, 90.00000000000000000, 180.0000000000000000, 270.0000000000000000, 360.0000000000000000 ),
 .UNSPECIFIED. ) 
 GEOMETRIC_REPRESENTATION_ITEM ( )  RATIONAL_B_SPLINE_SURFACE ( (
 ( 1.000000000000000000, 0.7071067811865480200, 1.000000000000000000, 0.7071067811865480200, 1.000000000000000000, 0.7071067811865480200, 1.000000000000000000, 0.7071067811865480200, 1.000000000000000000),
 ( 1.000000000000000000, 0.7071067811865480200, 1.000000000000000000, 0.7071067811865480200, 1.000000000000000000, 0.7071067811865480200, 1.000000000000000000, 0.7071067811865480200, 1.000000000000000000),
 ( 1.000000000000000000, 0.7071067811865480200, 1.000000000000000000, 0.7071067811865480200, 1.000000000000000000, 0.7071067811865480200, 1.000000000000000000, 0.7071067811865480200, 1.000000000000000000),
 ( 1.000000000000000000, 0.7071067811865480200, 1.000000000000000000, 0.7071067811865480200, 1.000000000000000000, 0.7071067811865480200, 1.000000000000000000, 0.7071067811865480200, 1.000000000000000000) ) ) 
 REPRESENTATION_ITEM ( '' )  SURFACE ( )  );
#42 = ORIENTED_EDGE ( 'NONE', *, *, #33, .T. ) ;
#43 = CARTESIAN_POINT ( 'NONE',  ( 0.0000000000000000000, 2.083333378345630000, 0.0000000000000000000 ) ) ;
#44 = CARTESIAN_POINT ( 'NONE',  ( 6.250000000000000000, -6.250000000000000000, 0.0008664250568376159800 ) ) ;
#45 = COORDINATED_UNIVERSAL_TIME_OFFSET ( 5, 0, .BEHIND. ) ;
#46 = ADVANCED_FACE ( 'NONE', ( #125 ), #198, .T. ) ;
#47 = AXIS2_PLACEMENT_3D ( 'NONE', #175, #152, #194 ) ;
#48 = CARTESIAN_POINT ( 'NONE',  ( 6.250000000000000000, -1.148106374200640000E-015, 0.0008664250568376159800 ) ) ;
#49 = DIRECTION ( 'NONE',  ( -1.734723475976810100E-020, -3.407667765548950100E-037, 1.000000000000000000 ) ) ;
#50 = ORIENTED_EDGE ( 'NONE', *, *, #10, .T. ) ;
#51 = CARTESIAN_POINT ( 'NONE',  ( 0.0000000000000000000, 0.0000000000000000000, 0.0000000000000000000 ) ) ;
#52 = CARTESIAN_POINT ( 'NONE',  ( 0.0000000000000000000, 0.0000000000000000000, 0.0000000000000000000 ) ) ;
#53 = CARTESIAN_POINT ( 'NONE',  ( 0.0000000000000000000, 0.0000000000000000000, 0.0000000000000000000 ) ) ;
#54 = CARTESIAN_POINT ( 'NONE',  ( -6.250000000000000000, 1.653582669167220900E-015, 0.0008664250568376159800 ) ) ;
#55 = DIRECTION ( 'NONE',  ( 0.0000000000000000000, -0.0000000000000000000, 1.000000000000000000 ) ) ;
#56 = CARTESIAN_POINT ( 'NONE',  ( -2.083333378345630000, 1.275673776673910100E-016, 0.0000000000000000000 ) ) ;
#57 = PRODUCT ( 'Web Model 66752', 'Web Model 66752', '', ( #67 ) ) ;
#58 = DIRECTION ( 'NONE',  ( -1.734723475976810100E-020, -3.407667765548950100E-037, 1.000000000000000000 ) ) ;
#59 = APPLICATION_CONTEXT ( 'configuration controlled 3d designs of mechanical parts and assemblies' ) ;
#60 = CARTESIAN_POINT ( 'NONE',  ( -2.551347553347809800E-016, -2.083333378345630000, 0.0000000000000000000 ) ) ;
#61 = MANIFOLD_SOLID_BREP ( 'Imported1', #36 ) ;
#62 = CYLINDRICAL_SURFACE ( 'NONE', #168, 6.250000000000000000 ) ;
#63 = VERTEX_POINT ( 'NONE', #271 ) ;
#64 = PERSON_AND_ORGANIZATION ( #266, #82 ) ;
#65 = APPLICATION_CONTEXT ( 'configuration controlled 3d designs of mechanical parts and assemblies' ) ;
#66 = CC_DESIGN_DATE_AND_TIME_ASSIGNMENT ( #92, #224, ( #137 ) ) ;
#67 = MECHANICAL_CONTEXT ( 'NONE', #59, 'mechanical' ) ;
#68 = CALENDAR_DATE ( 2017, 31, 1 ) ;
#69 = AXIS2_PLACEMENT_3D ( 'NONE', #5, #29, #9 ) ;
#70 = PERSON_AND_ORGANIZATION ( #266, #82 ) ;
#71 = PERSON_AND_ORGANIZATION ( #266, #82 ) ;
#72 = CARTESIAN_POINT ( 'NONE',  ( 4.166666941949721100, -4.166666941949721100, -0.0002888081998079289800 ) ) ;
#73 = CC_DESIGN_DATE_AND_TIME_ASSIGNMENT ( #241, #279, ( #195 ) ) ;
#74 = CARTESIAN_POINT ( 'NONE',  ( -2.551347553347809800E-016, -2.083333378345630000, 0.0000000000000000000 ) ) ;
#75 = CARTESIAN_POINT ( 'NONE',  ( -4.166666941949721100, 4.166666941949721100, -0.0002888081998079289800 ) ) ;
#76 = ADVANCED_FACE ( 'NONE', ( #242 ), #169, .T. ) ;
#77 = CARTESIAN_POINT ( 'NONE',  ( 6.250000000000000000, 6.250000000000000000, 0.0008664250568376159800 ) ) ;
#78 = PERSON_AND_ORGANIZATION ( #266, #82 ) ;
#79 = CARTESIAN_POINT ( 'NONE',  ( 0.0000000000000000000, 2.083333378345630000, 0.0000000000000000000 ) ) ;
#80 = DIRECTION ( 'NONE',  ( 0.0000000000000000000, 0.0000000000000000000, 1.000000000000000000 ) ) ;
#81 = CARTESIAN_POINT ( 'NONE',  ( -12.95400000000000100, 0.0000000000000000000, -3.000000000000000000 ) ) ;
#82 = ORGANIZATION ( 'UNSPECIFIED', 'UNSPECIFIED', '' ) ;
#83 = FACE_OUTER_BOUND ( 'NONE', #145, .T. ) ;
#84 = CARTESIAN_POINT ( 'NONE',  ( 0.0000000000000000000, 0.0000000000000000000, 0.0000000000000000000 ) ) ;
#85 =( NAMED_UNIT ( * ) PLANE_ANGLE_UNIT ( ) SI_UNIT ( $, .RADIAN. ) );
#86 = CARTESIAN_POINT ( 'NONE',  ( -5.102695333571819700E-016, -4.166666941949720200, -0.0002888081998079289800 ) ) ;
#87 = DESIGN_CONTEXT ( 'detailed design', #65, 'design' ) ;
#88 = EDGE_LOOP ( 'NONE', ( #268, #24 ) ) ;
#89 = SECURITY_CLASSIFICATION_LEVEL ( 'unclassified' ) ;
#90 = LOCAL_TIME ( 14, 38, 36.00000000000000000, #275 ) ;
#91 = ORIENTED_EDGE ( 'NONE', *, *, #157, .T. ) ;
#92 = DATE_AND_TIME ( #251, #25 ) ;
#93 = CARTESIAN_POINT ( 'NONE',  ( -6.250000000000000000, -6.250000000000000000, 0.0008664250568376159800 ) ) ;
#94 = CARTESIAN_POINT ( 'NONE',  ( 0.0000000000000000000, 0.0000000000000000000, 0.0000000000000000000 ) ) ;
#95 = APPROVAL_PERSON_ORGANIZATION ( #146, #265, #18 ) ;
#96 = CARTESIAN_POINT ( 'NONE',  ( -4.166666941949721100, -4.166666941949721100, -0.0002888081998079289800 ) ) ;
#97 = CARTESIAN_POINT ( 'NONE',  ( 0.0000000000000000000, 6.250000000000000000, 0.0008664250568376159800 ) ) ;
#98 = CARTESIAN_POINT ( 'NONE',  ( 2.083333378345630500, 2.083333378345630500, 0.0000000000000000000 ) ) ;
#99 = DIRECTION ( 'NONE',  ( 0.0000000000000000000, 0.0000000000000000000, -1.000000000000000000 ) ) ;
#100 = CIRCLE ( 'NONE', #203, 6.250000000000000000 ) ;
#101 = ORIENTED_EDGE ( 'NONE', *, *, #183, .T. ) ;
#102 = CARTESIAN_POINT ( 'NONE',  ( 0.0000000000000000000, 6.250000000000000000, 0.0008664250568376159800 ) ) ;
#103 = CARTESIAN_POINT ( 'NONE',  ( -2.551347553347809800E-016, -2.083333378345630000, 0.0000000000000000000 ) ) ;
#104 = COORDINATED_UNIVERSAL_TIME_OFFSET ( 5, 0, .BEHIND. ) ;
#105 = CARTESIAN_POINT ( 'NONE',  ( 0.0000000000000000000, 0.0000000000000000000, 0.0000000000000000000 ) ) ;
#106 = CARTESIAN_POINT ( 'NONE',  ( 6.250000000000000000, 6.250000000000000000, 0.0008664250568376159800 ) ) ;
#107 = CARTESIAN_POINT ( 'NONE',  ( 0.0000000000000000000, 4.166666941949720200, -0.0002888081998079289800 ) ) ;
#108 = CALENDAR_DATE ( 2017, 31, 1 ) ;
#109 = ORIENTED_EDGE ( 'NONE', *, *, #142, .T. ) ;
#110 = CARTESIAN_POINT ( 'NONE',  ( 4.166666941949721100, 4.166666941949721100, -0.0002888081998079289800 ) ) ;
#111 = CARTESIAN_POINT ( 'NONE',  ( 6.250000000000000000, 0.0000000000000000000, -3.000000000000000000 ) ) ;
#112 = EDGE_CURVE ( 'NONE', #204, #63, #243, .T. ) ;
#113 = ORIENTED_EDGE ( 'NONE', *, *, #170, .T. ) ;
#114 = ADVANCED_BREP_SHAPE_REPRESENTATION ( 'Web Model 66752', ( #61, #222 ), #128 ) ;
#115 = CC_DESIGN_SECURITY_CLASSIFICATION ( #137, ( #136 ) ) ;
#116 = CIRCLE ( 'NONE', #47, 6.250000000000000000 ) ;
#117 = CARTESIAN_POINT ( 'NONE',  ( 0.0000000000000000000, 0.0000000000000000000, 0.0000000000000000000 ) ) ;
#118 = VECTOR ( 'NONE', #166, 1000.000000000000000 ) ;
#119 = CARTESIAN_POINT ( 'NONE',  ( 0.0000000000000000000, 0.0000000000000000000, 0.0000000000000000000 ) ) ;
#120 = CARTESIAN_POINT ( 'NONE',  ( 4.166666941949720200, -7.654043000357729600E-016, -0.0002888081998079289800 ) ) ;
#121 = CARTESIAN_POINT ( 'NONE',  ( 6.250000000000000000, 8.881784197001250400E-016, -3.000000000000000000 ) ) ;
#122 = DATE_AND_TIME ( #68, #180 ) ;
#123 = CARTESIAN_POINT ( 'NONE',  ( 0.0000000000000000000, 0.0000000000000000000, 0.0000000000000000000 ) ) ;
#124 = CARTESIAN_POINT ( 'NONE',  ( 1.913510623667739900E-016, 0.0000000000000000000, -3.000000000000000000 ) ) ;
#125 = FACE_OUTER_BOUND ( 'NONE', #225, .T. ) ;
#126 = ORIENTED_EDGE ( 'NONE', *, *, #10, .F. ) ;
#127 = EDGE_CURVE ( 'NONE', #217, #63, #259, .T. ) ;
#128 =( GEOMETRIC_REPRESENTATION_CONTEXT ( 3 ) GLOBAL_UNCERTAINTY_ASSIGNED_CONTEXT ( ( #134 ) ) GLOBAL_UNIT_ASSIGNED_CONTEXT ( ( #129, #85, #130 ) ) REPRESENTATION_CONTEXT ( 'NONE', 'WORKASPACE' ) );
#129 =( LENGTH_UNIT ( ) NAMED_UNIT ( * ) SI_UNIT ( .MILLI., .METRE. ) );
#130 =( NAMED_UNIT ( * ) SI_UNIT ( $, .STERADIAN. ) SOLID_ANGLE_UNIT ( ) );
#131 = CARTESIAN_POINT ( 'NONE',  ( -6.250000000000000000, 3.827021247335479800E-016, 0.0008664250568376159800 ) ) ;
#132 = ORIENTED_EDGE ( 'NONE', *, *, #211, .T. ) ;
#133 = PERSON_AND_ORGANIZATION_ROLE ( 'creator' ) ;
#134 = UNCERTAINTY_MEASURE_WITH_UNIT (LENGTH_MEASURE( 1.000000000000000100E-005 ), #129, 'distance_accuracy_value', 'NONE');
#135 = SHAPE_DEFINITION_REPRESENTATION ( #160, #114 ) ;
#136 = PRODUCT_DEFINITION_FORMATION_WITH_SPECIFIED_SOURCE ( 'ANY', '', #57, .NOT_KNOWN. ) ;
#137 = SECURITY_CLASSIFICATION ( '', '', #89 ) ;
#138 = VERTEX_POINT ( 'NONE', #54 ) ;
#139 = EDGE_CURVE ( 'NONE', #39, #176, #193, .T. ) ;
#140 = CARTESIAN_POINT ( 'NONE',  ( 0.0000000000000000000, 0.0000000000000000000, 0.0000000000000000000 ) ) ;
#141 = DIRECTION ( 'NONE',  ( 0.0000000000000000000, 0.0000000000000000000, 1.000000000000000000 ) ) ;
#142 = EDGE_CURVE ( 'NONE', #176, #138, #187, .T. ) ;
#143 = CARTESIAN_POINT ( 'NONE',  ( -6.250000000000000000, 1.653582669167220900E-015, -3.000000000000000000 ) ) ;
#144 = CARTESIAN_POINT ( 'NONE',  ( 0.0000000000000000000, 0.0000000000000000000, 0.0000000000000000000 ) ) ;
#145 = EDGE_LOOP ( 'NONE', ( #132, #50, #263, #209, #182 ) ) ;
#146 = PERSON_AND_ORGANIZATION ( #266, #82 ) ;
#147 = APPROVAL ( #219, 'UNSPECIFIED' ) ;
#148 = CARTESIAN_POINT ( 'NONE',  ( 0.0000000000000000000, 4.166666941949720200, -0.0002888081998079289800 ) ) ;
#149 = CARTESIAN_POINT ( 'NONE',  ( 0.0000000000000000000, 6.250000000000000000, 0.0008664250568376159800 ) ) ;
#150 = ORIENTED_EDGE ( 'NONE', *, *, #112, .T. ) ;
#151 = AXIS2_PLACEMENT_3D ( 'NONE', #254, #8, #210 ) ;
#152 = DIRECTION ( 'NONE',  ( 0.0000000000000000000, -0.0000000000000000000, 1.000000000000000000 ) ) ;
#153 = COORDINATED_UNIVERSAL_TIME_OFFSET ( 5, 0, .BEHIND. ) ;
#154 = CARTESIAN_POINT ( 'NONE',  ( -4.166666941949721100, 4.166666941949721100, -0.0002888081998079289800 ) ) ;
#155 = ORIENTED_EDGE ( 'NONE', *, *, #33, .F. ) ;
#156 = PERSON_AND_ORGANIZATION_ROLE ( 'creator' ) ;
#157 = EDGE_CURVE ( 'NONE', #220, #204, #249, .T. ) ;
#158 = PERSON_AND_ORGANIZATION ( #266, #82 ) ;
#159 = APPROVAL_ROLE ( '' ) ;
#160 = PRODUCT_DEFINITION_SHAPE ( 'NONE', 'NONE',  #195 ) ;
#161 = CALENDAR_DATE ( 2017, 31, 1 ) ;
#162 = ORIENTED_EDGE ( 'NONE', *, *, #170, .F. ) ;
#163 = CARTESIAN_POINT ( 'NONE',  ( 0.0000000000000000000, 8.881784197001250400E-016, -3.000000000000000000 ) ) ;
#164 = CARTESIAN_POINT ( 'NONE',  ( -2.083333378345630000, 1.275673776673910100E-016, 0.0000000000000000000 ) ) ;
#165 = CARTESIAN_POINT ( 'NONE',  ( -6.250000000000000000, 3.827021247335479800E-016, 0.0008664250568376159800 ) ) ;
#166 = DIRECTION ( 'NONE',  ( -1.734723475976810100E-020, -3.407667765548950100E-037, 1.000000000000000000 ) ) ;
#167 = CARTESIAN_POINT ( 'NONE',  ( 0.0000000000000000000, 0.0000000000000000000, 0.0000000000000000000 ) ) ;
#168 = AXIS2_PLACEMENT_3D ( 'NONE', #256, #58, #274 ) ;
#169 = PLANE ( 'NONE',  #22 ) ;
#170 = EDGE_CURVE ( 'NONE', #39, #217, #212, .T. ) ;
#171 = CIRCLE ( 'NONE', #205, 6.250000000000000000 ) ;
#172 = CARTESIAN_POINT ( 'NONE',  ( 6.250000000000000000, -6.250000000000000000, 0.0008664250568376159800 ) ) ;
#173 = CARTESIAN_POINT ( 'NONE',  ( 0.0000000000000000000, 4.166666941949720200, -0.0002888081998079289800 ) ) ;
#174 = CARTESIAN_POINT ( 'NONE',  ( -6.250000000000000000, -6.250000000000000000, 0.0008664250568376159800 ) ) ;
#175 = CARTESIAN_POINT ( 'NONE',  ( 1.913510623667739900E-016, 0.0000000000000000000, -3.000000000000000000 ) ) ;
#176 = VERTEX_POINT ( 'NONE', #269 ) ;
#177 = AXIS2_PLACEMENT_3D ( 'NONE', #124, #55, #4 ) ;
#178 = PERSON_AND_ORGANIZATION_ROLE ( 'design_supplier' ) ;
#179 = PERSON_AND_ORGANIZATION ( #266, #82 ) ;
#180 = LOCAL_TIME ( 14, 38, 36.00000000000000000, #153 ) ;
#181 = CARTESIAN_POINT ( 'NONE',  ( 2.083333378345630000, -3.827021330021719900E-016, 0.0000000000000000000 ) ) ;
#182 = ORIENTED_EDGE ( 'NONE', *, *, #112, .F. ) ;
#183 = EDGE_CURVE ( 'NONE', #63, #176, #100, .T. ) ;
#184 = CARTESIAN_POINT ( 'NONE',  ( -4.166666941949720200, 2.551347666785909900E-016, -0.0002888081998079289800 ) ) ;
#185 = CARTESIAN_POINT ( 'NONE',  ( 0.0000000000000000000, 4.166666941949720200, -0.0002888081998079289800 ) ) ;
#186 = CARTESIAN_POINT ( 'NONE',  ( 0.0000000000000000000, 0.0000000000000000000, 0.0000000000000000000 ) ) ;
#187 = CIRCLE ( 'NONE', #69, 6.250000000000000000 ) ;
#188 = ADVANCED_FACE ( 'NONE', ( #6 ), #41, .T. ) ;
#189 = CARTESIAN_POINT ( 'NONE',  ( 1.913510623667739900E-016, 8.163829937277498000E-016, 0.0008664250568376159800 ) ) ;
#190 = CARTESIAN_POINT ( 'NONE',  ( 0.0000000000000000000, 0.0000000000000000000, 0.0000000000000000000 ) ) ;
#191 = CARTESIAN_POINT ( 'NONE',  ( 0.0000000000000000000, 0.0000000000000000000, 0.0000000000000000000 ) ) ;
#192 = ORIENTED_EDGE ( 'NONE', *, *, #127, .T. ) ;
#193 = B_SPLINE_CURVE_WITH_KNOTS ( 'NONE', 3,
 ( #53, #3, #148, #270 ),
 .UNSPECIFIED., .F., .F.,
 ( 4, 4 ),
 ( 0.0000000000000000000, 1.000000000000000000 ),
 .UNSPECIFIED. ) ;
#194 = DIRECTION ( 'NONE',  ( 1.000000000000000000, 0.0000000000000000000, 0.0000000000000000000 ) ) ;
#195 = PRODUCT_DEFINITION ( 'UNKNOWN', '', #136, #87 ) ;
#196 = PERSON_AND_ORGANIZATION_ROLE ( 'design_owner' ) ;
#197 = PERSON_AND_ORGANIZATION_ROLE ( 'classification_officer' ) ;
#198 =( BOUNDED_SURFACE ( )  B_SPLINE_SURFACE ( 3, 2, ( 
 ( #123, #117, #207, #94, #206, #119, #140, #20, #1 ),
 ( #79, #21, #164, #231, #74, #23, #181, #98, #43 ),
 ( #185, #75, #184, #96, #202, #72, #120, #267, #227 ),
 ( #97, #2, #165, #93, #245, #44, #48, #77, #102 ) ),
 .UNSPECIFIED., .F., .T., .F. ) 
 B_SPLINE_SURFACE_WITH_KNOTS ( ( 4, 4 ),
 ( 3, 2, 2, 2, 3 ),
 ( 0.0000000000000000000, 1.000000000000000000 ),
 ( 0.0000000000000000000, 90.00000000000000000, 180.0000000000000000, 270.0000000000000000, 360.0000000000000000 ),
 .UNSPECIFIED. ) 
 GEOMETRIC_REPRESENTATION_ITEM ( )  RATIONAL_B_SPLINE_SURFACE ( (
 ( 1.000000000000000000, 0.7071067811865480200, 1.000000000000000000, 0.7071067811865480200, 1.000000000000000000, 0.7071067811865480200, 1.000000000000000000, 0.7071067811865480200, 1.000000000000000000),
 ( 1.000000000000000000, 0.7071067811865480200, 1.000000000000000000, 0.7071067811865480200, 1.000000000000000000, 0.7071067811865480200, 1.000000000000000000, 0.7071067811865480200, 1.000000000000000000),
 ( 1.000000000000000000, 0.7071067811865480200, 1.000000000000000000, 0.7071067811865480200, 1.000000000000000000, 0.7071067811865480200, 1.000000000000000000, 0.7071067811865480200, 1.000000000000000000),
 ( 1.000000000000000000, 0.7071067811865480200, 1.000000000000000000, 0.7071067811865480200, 1.000000000000000000, 0.7071067811865480200, 1.000000000000000000, 0.7071067811865480200, 1.000000000000000000) ) ) 
 REPRESENTATION_ITEM ( '' )  SURFACE ( )  );
#199 = DATE_AND_TIME ( #161, #31 ) ;
#200 = EDGE_LOOP ( 'NONE', ( #244, #113, #192, #101 ) ) ;
#201 = ADVANCED_FACE ( 'NONE', ( #35 ), #62, .T. ) ;
#202 = CARTESIAN_POINT ( 'NONE',  ( -5.102695333571819700E-016, -4.166666941949720200, -0.0002888081998079289800 ) ) ;
#203 = AXIS2_PLACEMENT_3D ( 'NONE', #208, #80, #253 ) ;
#204 = VERTEX_POINT ( 'NONE', #111 ) ;
#205 = AXIS2_PLACEMENT_3D ( 'NONE', #189, #141, #230 ) ;
#206 = CARTESIAN_POINT ( 'NONE',  ( 0.0000000000000000000, 0.0000000000000000000, 0.0000000000000000000 ) ) ;
#207 = CARTESIAN_POINT ( 'NONE',  ( 0.0000000000000000000, 0.0000000000000000000, 0.0000000000000000000 ) ) ;
#208 = CARTESIAN_POINT ( 'NONE',  ( 1.913510623667739900E-016, 8.163829937277498000E-016, 0.0008664250568376159800 ) ) ;
#209 = ORIENTED_EDGE ( 'NONE', *, *, #183, .F. ) ;
#210 = DIRECTION ( 'NONE',  ( 1.000000000000000000, 0.0000000000000000000, 0.0000000000000000000 ) ) ;
#211 = EDGE_CURVE ( 'NONE', #204, #220, #116, .T. ) ;
#212 = B_SPLINE_CURVE_WITH_KNOTS ( 'NONE', 3,
 ( #190, #103, #248, #32 ),
 .UNSPECIFIED., .F., .F.,
 ( 4, 4 ),
 ( 0.0000000000000000000, 1.000000000000000000 ),
 .UNSPECIFIED. ) ;
#213 = CARTESIAN_POINT ( 'NONE',  ( -7.654042494670959600E-016, -6.250000000000000000, 0.0008664250568376159800 ) ) ;
#214 = CARTESIAN_POINT ( 'NONE',  ( -2.083333378345630500, 2.083333378345630500, 0.0000000000000000000 ) ) ;
#215 = COORDINATED_UNIVERSAL_TIME_OFFSET ( 5, 0, .BEHIND. ) ;
#216 = CARTESIAN_POINT ( 'NONE',  ( -4.166666941949720200, 2.551347666785909900E-016, -0.0002888081998079289800 ) ) ;
#217 = VERTEX_POINT ( 'NONE', #277 ) ;
#218 = CARTESIAN_POINT ( 'NONE',  ( -2.083333378345630500, -2.083333378345630500, 0.0000000000000000000 ) ) ;
#219 = APPROVAL_STATUS ( 'not_yet_approved' ) ;
#220 = VERTEX_POINT ( 'NONE', #12 ) ;
#221 = APPROVAL_DATE_TIME ( #199, #246 ) ;
#222 = AXIS2_PLACEMENT_3D ( 'NONE', #84, #255, #16 ) ;
#223 = APPROVAL_STATUS ( 'not_yet_approved' ) ;
#224 = DATE_TIME_ROLE ( 'classification_date' ) ;
#225 = EDGE_LOOP ( 'NONE', ( #162, #250, #109, #42 ) ) ;
#226 = CC_DESIGN_PERSON_AND_ORGANIZATION_ASSIGNMENT ( #179, #133, ( #195 ) ) ;
#227 = CARTESIAN_POINT ( 'NONE',  ( 0.0000000000000000000, 4.166666941949720200, -0.0002888081998079289800 ) ) ;
#228 = EDGE_LOOP ( 'NONE', ( #126, #91, #150, #276, #155 ) ) ;
#229 = LOCAL_TIME ( 14, 38, 36.00000000000000000, #45 ) ;
#230 = DIRECTION ( 'NONE',  ( 1.000000000000000000, 0.0000000000000000000, 0.0000000000000000000 ) ) ;
#231 = CARTESIAN_POINT ( 'NONE',  ( -2.083333378345630500, -2.083333378345630500, 0.0000000000000000000 ) ) ;
#232 = APPROVAL_PERSON_ORGANIZATION ( #78, #147, #278 ) ;
#233 = CARTESIAN_POINT ( 'NONE',  ( 0.0000000000000000000, 2.083333378345630000, 0.0000000000000000000 ) ) ;
#234 = CYLINDRICAL_SURFACE ( 'NONE', #236, 6.250000000000000000 ) ;
#235 = CC_DESIGN_PERSON_AND_ORGANIZATION_ASSIGNMENT ( #70, #196, ( #57 ) ) ;
#236 = AXIS2_PLACEMENT_3D ( 'NONE', #163, #28, #26 ) ;
#237 = APPROVAL_DATE_TIME ( #122, #147 ) ;
#238 = CARTESIAN_POINT ( 'NONE',  ( 2.083333378345630500, -2.083333378345630500, 0.0000000000000000000 ) ) ;
#239 = CC_DESIGN_PERSON_AND_ORGANIZATION_ASSIGNMENT ( #158, #197, ( #137 ) ) ;
#240 = CARTESIAN_POINT ( 'NONE',  ( -6.250000000000000000, 6.250000000000000000, 0.0008664250568376159800 ) ) ;
#241 = DATE_AND_TIME ( #108, #90 ) ;
#242 = FACE_OUTER_BOUND ( 'NONE', #88, .T. ) ;
#243 = LINE ( 'NONE', #121, #264 ) ;
#244 = ORIENTED_EDGE ( 'NONE', *, *, #139, .F. ) ;
#245 = CARTESIAN_POINT ( 'NONE',  ( -7.654042494670959600E-016, -6.250000000000000000, 0.0008664250568376159800 ) ) ;
#246 = APPROVAL ( #223, 'UNSPECIFIED' ) ;
#247 = CARTESIAN_POINT ( 'NONE',  ( 0.0000000000000000000, 0.0000000000000000000, 0.0000000000000000000 ) ) ;
#248 = CARTESIAN_POINT ( 'NONE',  ( -5.102695333571819700E-016, -4.166666941949720200, -0.0002888081998079289800 ) ) ;
#249 = CIRCLE ( 'NONE', #177, 6.250000000000000000 ) ;
#250 = ORIENTED_EDGE ( 'NONE', *, *, #139, .T. ) ;
#251 = CALENDAR_DATE ( 2017, 31, 1 ) ;
#252 = DIRECTION ( 'NONE',  ( -1.000000000000000000, 0.0000000000000000000, -0.0000000000000000000 ) ) ;
#253 = DIRECTION ( 'NONE',  ( 1.000000000000000000, 0.0000000000000000000, 0.0000000000000000000 ) ) ;
#254 = CARTESIAN_POINT ( 'NONE',  ( 1.913510623667739900E-016, 8.163829937277498000E-016, 0.0008664250568376159800 ) ) ;
#255 = DIRECTION ( 'NONE',  ( 0.0000000000000000000, 0.0000000000000000000, 1.000000000000000000 ) ) ;
#256 = CARTESIAN_POINT ( 'NONE',  ( 0.0000000000000000000, 8.881784197001250400E-016, -3.000000000000000000 ) ) ;
#257 = CARTESIAN_POINT ( 'NONE',  ( 6.250000000000000000, -1.148106374200640000E-015, 0.0008664250568376159800 ) ) ;
#258 = CARTESIAN_POINT ( 'NONE',  ( 2.083333378345630000, -3.827021330021719900E-016, 0.0000000000000000000 ) ) ;
#259 = CIRCLE ( 'NONE', #151, 6.250000000000000000 ) ;
#260 = CALENDAR_DATE ( 2017, 31, 1 ) ;
#261 = CARTESIAN_POINT ( 'NONE',  ( 4.166666941949720200, -7.654043000357729600E-016, -0.0002888081998079289800 ) ) ;
#262 = CC_DESIGN_APPROVAL ( #246, ( #136 ) ) ;
#263 = ORIENTED_EDGE ( 'NONE', *, *, #142, .F. ) ;
#264 = VECTOR ( 'NONE', #49, 1000.000000000000000 ) ;
#265 = APPROVAL ( #15, 'UNSPECIFIED' ) ;
#266 = PERSON ( 'UNSPECIFIED', 'UNSPECIFIED', 'UNSPECIFIED', ('UNSPECIFIED'), ('UNSPECIFIED'), ('UNSPECIFIED') ) ;
#267 = CARTESIAN_POINT ( 'NONE',  ( 4.166666941949721100, 4.166666941949721100, -0.0002888081998079289800 ) ) ;
#268 = ORIENTED_EDGE ( 'NONE', *, *, #211, .F. ) ;
#269 = CARTESIAN_POINT ( 'NONE',  ( -4.814824860968089600E-032, 6.250000000000001800, 0.0008664250568376159800 ) ) ;
#270 = CARTESIAN_POINT ( 'NONE',  ( -4.814824860968089600E-032, 6.250000000000001800, 0.0008664250568376159800 ) ) ;
#271 = CARTESIAN_POINT ( 'NONE',  ( 6.250000000000000000, 8.163829937277498000E-016, 0.0008664250568376159800 ) ) ;
#272 = CC_DESIGN_PERSON_AND_ORGANIZATION_ASSIGNMENT ( #64, #178, ( #136 ) ) ;
#273 = CARTESIAN_POINT ( 'NONE',  ( 0.0000000000000000000, 0.0000000000000000000, 0.0000000000000000000 ) ) ;
#274 = DIRECTION ( 'NONE',  ( 1.000000000000000000, 0.0000000000000000000, 0.0000000000000000000 ) ) ;
#275 = COORDINATED_UNIVERSAL_TIME_OFFSET ( 5, 0, .BEHIND. ) ;
#276 = ORIENTED_EDGE ( 'NONE', *, *, #127, .F. ) ;
#277 = CARTESIAN_POINT ( 'NONE',  ( -7.654042494670956600E-016, -6.249999999999999100, 0.0008664250568376159800 ) ) ;
#278 = APPROVAL_ROLE ( '' ) ;
#279 = DATE_TIME_ROLE ( 'creation_date' ) ;
#280 = APPROVAL_DATE_TIME ( #7, #265 ) ;
#281 = APPLICATION_PROTOCOL_DEFINITION ( 'international standard', 'config_control_design', 1994, #65 ) ;
#282 = CC_DESIGN_APPROVAL ( #147, ( #195 ) ) ;
#283 = PERSON_AND_ORGANIZATION ( #266, #82 ) ;
#284 = LINE ( 'NONE', #143, #118 ) ;
#285 = CC_DESIGN_APPROVAL ( #265, ( #137 ) ) ;
ENDSEC;
END-ISO-10303-21;
