ISO-10303-21;
HEADER;
FILE_DESCRIPTION (( 'STEP AP203' ),
    '1' );
FILE_NAME ('Web Model ZnSe Unctd_39396.step',
    '2018-09-27T18:11:11',
    ( '' ),
    ( '' ),
    'SwSTEP 2.0',
    'SolidWorks 2016',
    '' );
FILE_SCHEMA (( 'CONFIG_CONTROL_DESIGN' ));
ENDSEC;

DATA;
#1 = COORDINATED_UNIVERSAL_TIME_OFFSET ( 5, 0, .BEHIND. ) ;
#2 = SECURITY_CLASSIFICATION ( '', '', #72 ) ;
#3 = ORIENTED_EDGE ( 'NONE', *, *, #74, .F. ) ;
#4 = MECHANICAL_CONTEXT ( 'NONE', #85, 'mechanical' ) ;
#5 = APPROVAL_ROLE ( '' ) ;
#6 = CARTESIAN_POINT ( 'NONE',  ( 0.0000000000000000000, 0.0000000000000000000, -1.000000000000000000 ) ) ;
#7 = APPROVAL_DATE_TIME ( #12, #20 ) ;
#8 = CC_DESIGN_PERSON_AND_ORGANIZATION_ASSIGNMENT ( #45, #154, ( #43 ) ) ;
#9 = AXIS2_PLACEMENT_3D ( 'NONE', #156, #88, #47 ) ;
#10 = CC_DESIGN_APPROVAL ( #20, ( #2 ) ) ;
#11 = APPROVAL ( #130, 'UNSPECIFIED' ) ;
#12 = DATE_AND_TIME ( #158, #55 ) ;
#13 = DIRECTION ( 'NONE',  ( 0.0000000000000000000, 0.0000000000000000000, 1.000000000000000000 ) ) ;
#14 = APPLICATION_CONTEXT ( 'configuration controlled 3d designs of mechanical parts and assemblies' ) ;
#15 = PERSON_AND_ORGANIZATION_ROLE ( 'classification_officer' ) ;
#16 = PRODUCT_DEFINITION ( 'UNKNOWN', '', #43, #114 ) ;
#17 = DIRECTION ( 'NONE',  ( 1.000000000000000000, 0.0000000000000000000, 0.0000000000000000000 ) ) ;
#18 = LOCAL_TIME ( 14, 11, 11.00000000000000000, #1 ) ;
#19 = PLANE ( 'NONE',  #168 ) ;
#20 = APPROVAL ( #86, 'UNSPECIFIED' ) ;
#21 = ADVANCED_FACE ( 'NONE', ( #84 ), #19, .T. ) ;
#22 = ADVANCED_FACE ( 'NONE', ( #125 ), #62, .T. ) ;
#23 = APPROVAL_PERSON_ORGANIZATION ( #136, #20, #5 ) ;
#24 = ORIENTED_EDGE ( 'NONE', *, *, #61, .F. ) ;
#25 = UNCERTAINTY_MEASURE_WITH_UNIT (LENGTH_MEASURE( 1.000000000000000100E-005 ), #33, 'distance_accuracy_value', 'NONE');
#26 = EDGE_LOOP ( 'NONE', ( #159, #113, #140, #3 ) ) ;
#27 = APPROVAL ( #171, 'UNSPECIFIED' ) ;
#28 = CALENDAR_DATE ( 2018, 27, 9 ) ;
#29 = CLOSED_SHELL ( 'NONE', ( #22, #78, #21, #41 ) ) ;
#30 = PRODUCT ( 'Web Model ZnSe Unctd_39396', 'Web Model ZnSe Unctd_39396', '', ( #4 ) ) ;
#31 = PRODUCT_DEFINITION_SHAPE ( 'NONE', 'NONE',  #16 ) ;
#32 = VERTEX_POINT ( 'NONE', #162 ) ;
#33 =( LENGTH_UNIT ( ) NAMED_UNIT ( * ) SI_UNIT ( .MILLI., .METRE. ) );
#34 = CC_DESIGN_SECURITY_CLASSIFICATION ( #2, ( #43 ) ) ;
#35 = DATE_TIME_ROLE ( 'creation_date' ) ;
#36 = APPLICATION_PROTOCOL_DEFINITION ( 'international standard', 'config_control_design', 1994, #85 ) ;
#37 = PERSON_AND_ORGANIZATION ( #104, #150 ) ;
#38 = CARTESIAN_POINT ( 'NONE',  ( 12.69999999999999900, 1.555301434917138400E-015, -1.000000000000000000 ) ) ;
#39 = CARTESIAN_POINT ( 'NONE',  ( 12.69999999999999900, 1.555301434917138400E-015, 1.000000000000000000 ) ) ;
#40 = CARTESIAN_POINT ( 'NONE',  ( 0.0000000000000000000, 0.0000000000000000000, 1.000000000000000000 ) ) ;
#41 = ADVANCED_FACE ( 'NONE', ( #155 ), #133, .F. ) ;
#42 = DATE_AND_TIME ( #151, #127 ) ;
#43 = PRODUCT_DEFINITION_FORMATION_WITH_SPECIFIED_SOURCE ( 'ANY', '', #30, .NOT_KNOWN. ) ;
#44 = DATE_AND_TIME ( #28, #64 ) ;
#45 = PERSON_AND_ORGANIZATION ( #104, #150 ) ;
#46 = AXIS2_PLACEMENT_3D ( 'NONE', #77, #122, #145 ) ;
#47 = DIRECTION ( 'NONE',  ( -1.000000000000000000, 0.0000000000000000000, 0.0000000000000000000 ) ) ;
#48 = COORDINATED_UNIVERSAL_TIME_OFFSET ( 5, 0, .BEHIND. ) ;
#49 = APPLICATION_PROTOCOL_DEFINITION ( 'international standard', 'config_control_design', 1994, #14 ) ;
#50 = CARTESIAN_POINT ( 'NONE',  ( -12.69999999999999900, 0.0000000000000000000, 1.000000000000000000 ) ) ;
#51 = EDGE_CURVE ( 'NONE', #53, #52, #123, .T. ) ;
#52 = VERTEX_POINT ( 'NONE', #90 ) ;
#53 = VERTEX_POINT ( 'NONE', #39 ) ;
#54 = AXIS2_PLACEMENT_3D ( 'NONE', #107, #13, #17 ) ;
#55 = LOCAL_TIME ( 14, 11, 11.00000000000000000, #132 ) ;
#56 = CYLINDRICAL_SURFACE ( 'NONE', #9, 12.69999999999999900 ) ;
#57 = PERSON_AND_ORGANIZATION_ROLE ( 'creator' ) ;
#58 =( NAMED_UNIT ( * ) SI_UNIT ( $, .STERADIAN. ) SOLID_ANGLE_UNIT ( ) );
#59 = ORIENTED_EDGE ( 'NONE', *, *, #74, .T. ) ;
#60 = DIRECTION ( 'NONE',  ( 1.000000000000000000, 0.0000000000000000000, 0.0000000000000000000 ) ) ;
#61 = EDGE_CURVE ( 'NONE', #32, #116, #149, .T. ) ;
#62 = CYLINDRICAL_SURFACE ( 'NONE', #146, 12.69999999999999900 ) ;
#63 = DIRECTION ( 'NONE',  ( -1.000000000000000000, 0.0000000000000000000, 0.0000000000000000000 ) ) ;
#64 = LOCAL_TIME ( 14, 11, 11.00000000000000000, #75 ) ;
#65 = CIRCLE ( 'NONE', #174, 12.69999999999999900 ) ;
#66 = CC_DESIGN_PERSON_AND_ORGANIZATION_ASSIGNMENT ( #124, #131, ( #30 ) ) ;
#67 = LOCAL_TIME ( 14, 11, 11.00000000000000000, #89 ) ;
#68 = ORIENTED_EDGE ( 'NONE', *, *, #61, .T. ) ;
#69 = APPROVAL_DATE_TIME ( #80, #11 ) ;
#70 = EDGE_LOOP ( 'NONE', ( #144, #175 ) ) ;
#71 = CC_DESIGN_PERSON_AND_ORGANIZATION_ASSIGNMENT ( #106, #15, ( #2 ) ) ;
#72 = SECURITY_CLASSIFICATION_LEVEL ( 'unclassified' ) ;
#73 = APPROVAL_PERSON_ORGANIZATION ( #166, #11, #142 ) ;
#74 = EDGE_CURVE ( 'NONE', #52, #32, #102, .T. ) ;
#75 = COORDINATED_UNIVERSAL_TIME_OFFSET ( 5, 0, .BEHIND. ) ;
#76 = FACE_OUTER_BOUND ( 'NONE', #139, .T. ) ;
#77 = CARTESIAN_POINT ( 'NONE',  ( 0.0000000000000000000, 0.0000000000000000000, -1.000000000000000000 ) ) ;
#78 = ADVANCED_FACE ( 'NONE', ( #76 ), #56, .T. ) ;
#79 = DIRECTION ( 'NONE',  ( -0.0000000000000000000, -0.0000000000000000000, -1.000000000000000000 ) ) ;
#80 = DATE_AND_TIME ( #111, #18 ) ;
#81 = CALENDAR_DATE ( 2018, 27, 9 ) ;
#82 = ADVANCED_BREP_SHAPE_REPRESENTATION ( 'Web Model ZnSe Unctd_39396', ( #138, #135 ), #110 ) ;
#83 = CC_DESIGN_APPROVAL ( #11, ( #43 ) ) ;
#84 = FACE_OUTER_BOUND ( 'NONE', #70, .T. ) ;
#85 = APPLICATION_CONTEXT ( 'configuration controlled 3d designs of mechanical parts and assemblies' ) ;
#86 = APPROVAL_STATUS ( 'not_yet_approved' ) ;
#87 = DIRECTION ( 'NONE',  ( 0.0000000000000000000, 0.0000000000000000000, 1.000000000000000000 ) ) ;
#88 = DIRECTION ( 'NONE',  ( -0.0000000000000000000, -0.0000000000000000000, -1.000000000000000000 ) ) ;
#89 = COORDINATED_UNIVERSAL_TIME_OFFSET ( 5, 0, .BEHIND. ) ;
#90 = CARTESIAN_POINT ( 'NONE',  ( -12.69999999999999900, 0.0000000000000000000, 1.000000000000000000 ) ) ;
#91 = DIRECTION ( 'NONE',  ( 0.0000000000000000000, 0.0000000000000000000, 1.000000000000000000 ) ) ;
#92 = ORIENTED_EDGE ( 'NONE', *, *, #163, .F. ) ;
#93 = DIRECTION ( 'NONE',  ( -0.0000000000000000000, -0.0000000000000000000, -1.000000000000000000 ) ) ;
#94 = PERSON_AND_ORGANIZATION ( #104, #150 ) ;
#95 = VECTOR ( 'NONE', #105, 1000.000000000000000 ) ;
#96 = CIRCLE ( 'NONE', #54, 12.69999999999999900 ) ;
#97 = CC_DESIGN_PERSON_AND_ORGANIZATION_ASSIGNMENT ( #94, #103, ( #16 ) ) ;
#98 = ORIENTED_EDGE ( 'NONE', *, *, #128, .F. ) ;
#99 = APPROVAL_DATE_TIME ( #164, #27 ) ;
#100 = AXIS2_PLACEMENT_3D ( 'NONE', #143, #129, #60 ) ;
#101 = DIRECTION ( 'NONE',  ( 0.0000000000000000000, 0.0000000000000000000, 1.000000000000000000 ) ) ;
#102 = LINE ( 'NONE', #50, #134 ) ;
#103 = PERSON_AND_ORGANIZATION_ROLE ( 'creator' ) ;
#104 = PERSON ( 'UNSPECIFIED', 'UNSPECIFIED', 'UNSPECIFIED', ('UNSPECIFIED'), ('UNSPECIFIED'), ('UNSPECIFIED') ) ;
#105 = DIRECTION ( 'NONE',  ( -0.0000000000000000000, -0.0000000000000000000, -1.000000000000000000 ) ) ;
#106 = PERSON_AND_ORGANIZATION ( #104, #150 ) ;
#107 = CARTESIAN_POINT ( 'NONE',  ( 0.0000000000000000000, 0.0000000000000000000, 1.000000000000000000 ) ) ;
#108 = PRODUCT_RELATED_PRODUCT_CATEGORY ( 'detail', '', ( #30 ) ) ;
#109 = DIRECTION ( 'NONE',  ( 1.000000000000000000, 0.0000000000000000000, -0.0000000000000000000 ) ) ;
#110 =( GEOMETRIC_REPRESENTATION_CONTEXT ( 3 ) GLOBAL_UNCERTAINTY_ASSIGNED_CONTEXT ( ( #25 ) ) GLOBAL_UNIT_ASSIGNED_CONTEXT ( ( #33, #141, #58 ) ) REPRESENTATION_CONTEXT ( 'NONE', 'WORKASPACE' ) );
#111 = CALENDAR_DATE ( 2018, 27, 9 ) ;
#112 = APPROVAL_PERSON_ORGANIZATION ( #147, #27, #117 ) ;
#113 = ORIENTED_EDGE ( 'NONE', *, *, #163, .T. ) ;
#114 = DESIGN_CONTEXT ( 'detailed design', #14, 'design' ) ;
#115 = CC_DESIGN_DATE_AND_TIME_ASSIGNMENT ( #44, #167, ( #2 ) ) ;
#116 = VERTEX_POINT ( 'NONE', #38 ) ;
#117 = APPROVAL_ROLE ( '' ) ;
#118 = CARTESIAN_POINT ( 'NONE',  ( 0.0000000000000000000, 0.0000000000000000000, 0.0000000000000000000 ) ) ;
#119 = DIRECTION ( 'NONE',  ( 1.000000000000000000, 0.0000000000000000000, 0.0000000000000000000 ) ) ;
#120 = EDGE_LOOP ( 'NONE', ( #24, #98 ) ) ;
#121 = DIRECTION ( 'NONE',  ( 1.000000000000000000, 0.0000000000000000000, 0.0000000000000000000 ) ) ;
#122 = DIRECTION ( 'NONE',  ( 0.0000000000000000000, 0.0000000000000000000, 1.000000000000000000 ) ) ;
#123 = CIRCLE ( 'NONE', #152, 12.69999999999999900 ) ;
#124 = PERSON_AND_ORGANIZATION ( #104, #150 ) ;
#125 = FACE_OUTER_BOUND ( 'NONE', #26, .T. ) ;
#126 = EDGE_CURVE ( 'NONE', #52, #53, #96, .T. ) ;
#127 = LOCAL_TIME ( 14, 11, 11.00000000000000000, #48 ) ;
#128 = EDGE_CURVE ( 'NONE', #116, #32, #65, .T. ) ;
#129 = DIRECTION ( 'NONE',  ( 0.0000000000000000000, 0.0000000000000000000, 1.000000000000000000 ) ) ;
#130 = APPROVAL_STATUS ( 'not_yet_approved' ) ;
#131 = PERSON_AND_ORGANIZATION_ROLE ( 'design_owner' ) ;
#132 = COORDINATED_UNIVERSAL_TIME_OFFSET ( 5, 0, .BEHIND. ) ;
#133 = PLANE ( 'NONE',  #46 ) ;
#134 = VECTOR ( 'NONE', #79, 1000.000000000000000 ) ;
#135 = AXIS2_PLACEMENT_3D ( 'NONE', #118, #101, #153 ) ;
#136 = PERSON_AND_ORGANIZATION ( #104, #150 ) ;
#137 = ORIENTED_EDGE ( 'NONE', *, *, #126, .F. ) ;
#138 = MANIFOLD_SOLID_BREP ( 'Boss-Extrude1', #29 ) ;
#139 = EDGE_LOOP ( 'NONE', ( #92, #137, #59, #68 ) ) ;
#140 = ORIENTED_EDGE ( 'NONE', *, *, #128, .T. ) ;
#141 =( NAMED_UNIT ( * ) PLANE_ANGLE_UNIT ( ) SI_UNIT ( $, .RADIAN. ) );
#142 = APPROVAL_ROLE ( '' ) ;
#143 = CARTESIAN_POINT ( 'NONE',  ( 0.0000000000000000000, 0.0000000000000000000, -1.000000000000000000 ) ) ;
#144 = ORIENTED_EDGE ( 'NONE', *, *, #126, .T. ) ;
#145 = DIRECTION ( 'NONE',  ( 1.000000000000000000, 0.0000000000000000000, -0.0000000000000000000 ) ) ;
#146 = AXIS2_PLACEMENT_3D ( 'NONE', #40, #93, #63 ) ;
#147 = PERSON_AND_ORGANIZATION ( #104, #150 ) ;
#148 = SHAPE_DEFINITION_REPRESENTATION ( #31, #82 ) ;
#149 = CIRCLE ( 'NONE', #100, 12.69999999999999900 ) ;
#150 = ORGANIZATION ( 'UNSPECIFIED', 'UNSPECIFIED', '' ) ;
#151 = CALENDAR_DATE ( 2018, 27, 9 ) ;
#152 = AXIS2_PLACEMENT_3D ( 'NONE', #161, #172, #121 ) ;
#153 = DIRECTION ( 'NONE',  ( 1.000000000000000000, 0.0000000000000000000, 0.0000000000000000000 ) ) ;
#154 = PERSON_AND_ORGANIZATION_ROLE ( 'design_supplier' ) ;
#155 = FACE_OUTER_BOUND ( 'NONE', #120, .T. ) ;
#156 = CARTESIAN_POINT ( 'NONE',  ( 0.0000000000000000000, 0.0000000000000000000, 1.000000000000000000 ) ) ;
#157 = CARTESIAN_POINT ( 'NONE',  ( 12.69999999999999900, 1.555301434917138400E-015, 1.000000000000000000 ) ) ;
#158 = CALENDAR_DATE ( 2018, 27, 9 ) ;
#159 = ORIENTED_EDGE ( 'NONE', *, *, #51, .F. ) ;
#160 = CC_DESIGN_APPROVAL ( #27, ( #16 ) ) ;
#161 = CARTESIAN_POINT ( 'NONE',  ( 0.0000000000000000000, 0.0000000000000000000, 1.000000000000000000 ) ) ;
#162 = CARTESIAN_POINT ( 'NONE',  ( -12.69999999999999900, 0.0000000000000000000, -1.000000000000000000 ) ) ;
#163 = EDGE_CURVE ( 'NONE', #53, #116, #169, .T. ) ;
#164 = DATE_AND_TIME ( #81, #67 ) ;
#165 = CC_DESIGN_DATE_AND_TIME_ASSIGNMENT ( #42, #35, ( #16 ) ) ;
#166 = PERSON_AND_ORGANIZATION ( #104, #150 ) ;
#167 = DATE_TIME_ROLE ( 'classification_date' ) ;
#168 = AXIS2_PLACEMENT_3D ( 'NONE', #173, #91, #109 ) ;
#169 = LINE ( 'NONE', #157, #95 ) ;
#170 = CC_DESIGN_PERSON_AND_ORGANIZATION_ASSIGNMENT ( #37, #57, ( #43 ) ) ;
#171 = APPROVAL_STATUS ( 'not_yet_approved' ) ;
#172 = DIRECTION ( 'NONE',  ( 0.0000000000000000000, 0.0000000000000000000, 1.000000000000000000 ) ) ;
#173 = CARTESIAN_POINT ( 'NONE',  ( 0.0000000000000000000, 0.0000000000000000000, 1.000000000000000000 ) ) ;
#174 = AXIS2_PLACEMENT_3D ( 'NONE', #6, #87, #119 ) ;
#175 = ORIENTED_EDGE ( 'NONE', *, *, #51, .T. ) ;
ENDSEC;
END-ISO-10303-21;
