ISO-10303-21;
HEADER;
FILE_DESCRIPTION (( 'STEP AP203' ),
    '1' );
FILE_NAME ('4343-E0W.STEP',
    '2015-06-17T20:54:56',
    ( 'admin' ),
    ( '' ),
    'SwSTEP 2.0',
    'SolidWorks 2014',
    '' );
FILE_SCHEMA (( 'CONFIG_CONTROL_DESIGN' ));
ENDSEC;

DATA;
#1 = DIRECTION ( 'NONE',  ( -1.000000000000000000, 0.0000000000000000000, 0.0000000000000000000 ) ) ;
#2 = UNCERTAINTY_MEASURE_WITH_UNIT (LENGTH_MEASURE( 1.000000000000000100E-005 ), #272, 'distance_accuracy_value', 'NONE');
#3 = CIRCLE ( 'NONE', #186, 6.099999999999998800 ) ;
#4 = CARTESIAN_POINT ( 'NONE',  ( -7.550758225640141900E-016, -6.165661994051896000, 2.185889128370902800 ) ) ;
#5 = CONICAL_SURFACE ( 'NONE', #288, 6.350000000000001400, 0.7853981633974500600 ) ;
#6 = CLOSED_SHELL ( 'NONE', ( #287, #100, #310, #214, #320, #79, #235, #194, #137 ) ) ;
#7 = CARTESIAN_POINT ( 'NONE',  ( 0.0000000000000000000, 0.0000000000000000000, 2.185889128370901400 ) ) ;
#8 = CARTESIAN_POINT ( 'NONE',  ( 0.0000000000000000000, 0.0000000000000000000, 2.185889128370901400 ) ) ;
#9 = EDGE_CURVE ( 'NONE', #128, #148, #295, .T. ) ;
#10 = DATE_AND_TIME ( #82, #111 ) ;
#11 = DIRECTION ( 'NONE',  ( 1.000000000000000000, 0.0000000000000000000, 0.0000000000000000000 ) ) ;
#12 = COORDINATED_UNIVERSAL_TIME_OFFSET ( 5, 0, .BEHIND. ) ;
#13 = AXIS2_PLACEMENT_3D ( 'NONE', #185, #37, #35 ) ;
#14 = VERTEX_POINT ( 'NONE', #4 ) ;
#15 = EDGE_CURVE ( 'NONE', #14, #303, #317, .T. ) ;
#16 = SPHERICAL_SURFACE ( 'NONE', #113, 9.199999999999999300 ) ;
#17 = EDGE_CURVE ( 'NONE', #296, #14, #238, .T. ) ;
#18 = PERSON ( 'UNSPECIFIED', 'UNSPECIFIED', 'UNSPECIFIED', ('UNSPECIFIED'), ('UNSPECIFIED'), ('UNSPECIFIED') ) ;
#19 = DIRECTION ( 'NONE',  ( 1.000000000000000000, 0.0000000000000000000, 0.0000000000000000000 ) ) ;
#20 = LOCAL_TIME ( 16, 54, 56.00000000000000000, #12 ) ;
#21 = DIRECTION ( 'NONE',  ( 0.0000000000000000000, 0.0000000000000000000, -1.000000000000000000 ) ) ;
#22 = DIRECTION ( 'NONE',  ( 1.000000000000000000, -0.0000000000000000000, 0.0000000000000000000 ) ) ;
#23 = VERTEX_POINT ( 'NONE', #269 ) ;
#24 = EDGE_CURVE ( 'NONE', #55, #148, #313, .T. ) ;
#25 = AXIS2_PLACEMENT_3D ( 'NONE', #203, #190, #136 ) ;
#26 = CARTESIAN_POINT ( 'NONE',  ( 0.0000000000000000000, 0.0000000000000000000, 2.185889128370902300 ) ) ;
#27 = ORIENTED_EDGE ( 'NONE', *, *, #134, .T. ) ;
#28 = EDGE_CURVE ( 'NONE', #148, #23, #36, .T. ) ;
#29 = PERSON_AND_ORGANIZATION_ROLE ( 'design_owner' ) ;
#30 = CARTESIAN_POINT ( 'NONE',  ( 6.165661994051896000, 7.550758225640139900E-016, 2.185889128370901400 ) ) ;
#31 = VECTOR ( 'NONE', #174, 1000.000000000000000 ) ;
#32 = EDGE_CURVE ( 'NONE', #171, #23, #200, .T. ) ;
#33 = DIRECTION ( 'NONE',  ( 1.000000000000000000, 0.0000000000000000000, 0.0000000000000000000 ) ) ;
#34 = COORDINATED_UNIVERSAL_TIME_OFFSET ( 5, 0, .BEHIND. ) ;
#35 = DIRECTION ( 'NONE',  ( 1.000000000000000000, 0.0000000000000000000, 0.0000000000000000000 ) ) ;
#36 = LINE ( 'NONE', #249, #197 ) ;
#37 = DIRECTION ( 'NONE',  ( 0.0000000000000000000, 0.0000000000000000000, -1.000000000000000000 ) ) ;
#38 = VERTEX_POINT ( 'NONE', #274 ) ;
#39 = EDGE_CURVE ( 'NONE', #128, #51, #3, .T. ) ;
#40 = CARTESIAN_POINT ( 'NONE',  ( 0.0000000000000000000, 0.0000000000000000000, 2.106971846492246200 ) ) ;
#41 = DIRECTION ( 'NONE',  ( 1.000000000000000000, 0.0000000000000000000, 0.0000000000000000000 ) ) ;
#42 = CIRCLE ( 'NONE', #179, 9.199999999999999300 ) ;
#43 = FACE_OUTER_BOUND ( 'NONE', #258, .T. ) ;
#44 = CARTESIAN_POINT ( 'NONE',  ( 0.0000000000000000000, 0.0000000000000000000, -1.935889128370900300 ) ) ;
#45 = ORIENTED_EDGE ( 'NONE', *, *, #17, .F. ) ;
#46 = APPROVAL_STATUS ( 'not_yet_approved' ) ;
#47 = DIRECTION ( 'NONE',  ( 0.9192979362819019300, 1.125815275130398400E-016, -0.3935623258746143200 ) ) ;
#48 = EDGE_CURVE ( 'NONE', #23, #171, #256, .T. ) ;
#49 = LINE ( 'NONE', #30, #102 ) ;
#50 = DIRECTION ( 'NONE',  ( 1.000000000000000000, 0.0000000000000000000, 0.0000000000000000000 ) ) ;
#51 = VERTEX_POINT ( 'NONE', #127 ) ;
#52 = ORIENTED_EDGE ( 'NONE', *, *, #15, .T. ) ;
#53 = DIRECTION ( 'NONE',  ( -0.0000000000000000000, -0.0000000000000000000, 1.000000000000000000 ) ) ;
#54 = CIRCLE ( 'NONE', #13, 6.099999999999998800 ) ;
#55 = VERTEX_POINT ( 'NONE', #289 ) ;
#56 = CARTESIAN_POINT ( 'NONE',  ( 0.0000000000000000000, 0.0000000000000000000, 9.014110871629098300 ) ) ;
#57 = ORIENTED_EDGE ( 'NONE', *, *, #77, .T. ) ;
#58 = ORIENTED_EDGE ( 'NONE', *, *, #28, .F. ) ;
#59 = CARTESIAN_POINT ( 'NONE',  ( -6.165661994051896000, 0.0000000000000000000, 2.185889128370902300 ) ) ;
#60 = FACE_OUTER_BOUND ( 'NONE', #161, .T. ) ;
#61 = ORIENTED_EDGE ( 'NONE', *, *, #309, .T. ) ;
#62 = DIRECTION ( 'NONE',  ( 1.000000000000000000, 0.0000000000000000000, 0.0000000000000000000 ) ) ;
#63 = AXIS2_PLACEMENT_3D ( 'NONE', #201, #169, #246 ) ;
#64 = FACE_OUTER_BOUND ( 'NONE', #188, .T. ) ;
#65 = DIRECTION ( 'NONE',  ( -0.0000000000000000000, -0.0000000000000000000, 1.000000000000000000 ) ) ;
#66 = ORIENTED_EDGE ( 'NONE', *, *, #225, .F. ) ;
#67 = DESIGN_CONTEXT ( 'detailed design', #247, 'design' ) ;
#68 = AXIS2_PLACEMENT_3D ( 'NONE', #8, #21, #1 ) ;
#69 = ORIENTED_EDGE ( 'NONE', *, *, #134, .F. ) ;
#70 = VERTEX_POINT ( 'NONE', #273 ) ;
#71 = DIRECTION ( 'NONE',  ( 0.0000000000000000000, 0.0000000000000000000, -1.000000000000000000 ) ) ;
#72 = DIRECTION ( 'NONE',  ( 0.0000000000000000000, 0.0000000000000000000, -1.000000000000000000 ) ) ;
#73 = APPROVAL ( #198, 'UNSPECIFIED' ) ;
#74 = DIRECTION ( 'NONE',  ( -1.224646799147353200E-016, -1.000000000000000000, 0.0000000000000000000 ) ) ;
#75 = PRODUCT_RELATED_PRODUCT_CATEGORY ( 'detail', '', ( #163 ) ) ;
#76 = EDGE_CURVE ( 'NONE', #55, #171, #191, .T. ) ;
#77 = EDGE_CURVE ( 'NONE', #303, #38, #260, .T. ) ;
#78 = AXIS2_PLACEMENT_3D ( 'NONE', #299, #122, #19 ) ;
#79 = ADVANCED_FACE ( 'NONE', ( #43 ), #119, .T. ) ;
#80 = SHAPE_DEFINITION_REPRESENTATION ( #144, #229 ) ;
#81 = AXIS2_PLACEMENT_3D ( 'NONE', #26, #305, #139 ) ;
#82 = CALENDAR_DATE ( 2015, 17, 6 ) ;
#83 = CARTESIAN_POINT ( 'NONE',  ( -6.350000000000001400, 7.776507174585694100E-016, -0.1858891283709023000 ) ) ;
#84 = DIRECTION ( 'NONE',  ( -0.0000000000000000000, -0.0000000000000000000, 1.000000000000000000 ) ) ;
#85 = DIRECTION ( 'NONE',  ( -0.0000000000000000000, -0.0000000000000000000, 1.000000000000000000 ) ) ;
#86 = AXIS2_PLACEMENT_3D ( 'NONE', #314, #116, #50 ) ;
#87 = APPROVAL_PERSON_ORGANIZATION ( #105, #73, #217 ) ;
#88 = ORIENTED_EDGE ( 'NONE', *, *, #309, .F. ) ;
#89 = CALENDAR_DATE ( 2015, 17, 6 ) ;
#90 = DIRECTION ( 'NONE',  ( 1.000000000000000000, 0.0000000000000000000, 0.0000000000000000000 ) ) ;
#91 = FACE_OUTER_BOUND ( 'NONE', #135, .T. ) ;
#92 = CYLINDRICAL_SURFACE ( 'NONE', #280, 6.350000000000001400 ) ;
#93 = APPROVAL ( #46, 'UNSPECIFIED' ) ;
#94 = ORIENTED_EDGE ( 'NONE', *, *, #9, .T. ) ;
#95 = CONICAL_SURFACE ( 'NONE', #68, 6.165661994051896000, 1.166292882935018300 ) ;
#96 = ORIENTED_EDGE ( 'NONE', *, *, #24, .T. ) ;
#97 = DIRECTION ( 'NONE',  ( -0.9192979362819019300, 0.0000000000000000000, -0.3935623258746143200 ) ) ;
#98 = ORIENTED_EDGE ( 'NONE', *, *, #205, .F. ) ;
#99 =( NAMED_UNIT ( * ) SI_UNIT ( $, .STERADIAN. ) SOLID_ANGLE_UNIT ( ) );
#100 = ADVANCED_FACE ( 'NONE', ( #60 ), #5, .T. ) ;
#101 = CC_DESIGN_PERSON_AND_ORGANIZATION_ASSIGNMENT ( #285, #196, ( #241 ) ) ;
#102 = VECTOR ( 'NONE', #47, 1000.000000000000100 ) ;
#103 = ORIENTED_EDGE ( 'NONE', *, *, #24, .F. ) ;
#104 = PERSON_AND_ORGANIZATION_ROLE ( 'classification_officer' ) ;
#105 = PERSON_AND_ORGANIZATION ( #18, #210 ) ;
#106 = DIRECTION ( 'NONE',  ( -0.0000000000000000000, -0.0000000000000000000, 1.000000000000000000 ) ) ;
#107 = AXIS2_PLACEMENT_3D ( 'NONE', #231, #85, #181 ) ;
#108 = DIRECTION ( 'NONE',  ( 1.000000000000000000, 0.0000000000000000000, 0.0000000000000000000 ) ) ;
#109 = FACE_OUTER_BOUND ( 'NONE', #257, .T. ) ;
#110 = CARTESIAN_POINT ( 'NONE',  ( 0.0000000000000000000, 0.0000000000000000000, -0.1858891283709023000 ) ) ;
#111 = LOCAL_TIME ( 16, 54, 56.00000000000000000, #34 ) ;
#112 = DIRECTION ( 'NONE',  ( 1.000000000000000000, 0.0000000000000000000, 0.0000000000000000000 ) ) ;
#113 = AXIS2_PLACEMENT_3D ( 'NONE', #133, #212, #152 ) ;
#114 = CARTESIAN_POINT ( 'NONE',  ( -6.350000000000001400, 7.776507174585694100E-016, 2.106971846492246200 ) ) ;
#115 = CARTESIAN_POINT ( 'NONE',  ( 6.165661994051896000, 7.663632700112916500E-016, 2.185889128370902300 ) ) ;
#116 = DIRECTION ( 'NONE',  ( 0.0000000000000000000, -0.0000000000000000000, 1.000000000000000000 ) ) ;
#117 = EDGE_LOOP ( 'NONE', ( #187, #27, #251, #268 ) ) ;
#118 = PERSON_AND_ORGANIZATION ( #18, #210 ) ;
#119 = CYLINDRICAL_SURFACE ( 'NONE', #308, 6.350000000000001400 ) ;
#120 = LINE ( 'NONE', #264, #177 ) ;
#121 = ORIENTED_EDGE ( 'NONE', *, *, #225, .T. ) ;
#122 = DIRECTION ( 'NONE',  ( -0.0000000000000000000, -0.0000000000000000000, 1.000000000000000000 ) ) ;
#123 = AXIS2_PLACEMENT_3D ( 'NONE', #244, #270, #62 ) ;
#124 = PERSON_AND_ORGANIZATION ( #18, #210 ) ;
#125 = ORIENTED_EDGE ( 'NONE', *, *, #166, .T. ) ;
#126 = DIRECTION ( 'NONE',  ( 0.0000000000000000000, 0.0000000000000000000, -1.000000000000000000 ) ) ;
#127 = CARTESIAN_POINT ( 'NONE',  ( -6.099999999999998800, 7.623426324692274200E-016, -2.185889128370902300 ) ) ;
#128 = VERTEX_POINT ( 'NONE', #216 ) ;
#129 = APPROVAL_PERSON_ORGANIZATION ( #234, #93, #267 ) ;
#130 = DIRECTION ( 'NONE',  ( -1.000000000000000000, 0.0000000000000000000, 0.0000000000000000000 ) ) ;
#131 = CARTESIAN_POINT ( 'NONE',  ( 0.0000000000000000000, 0.0000000000000000000, 2.185889128370902300 ) ) ;
#132 = CC_DESIGN_DATE_AND_TIME_ASSIGNMENT ( #284, #151, ( #241 ) ) ;
#133 = CARTESIAN_POINT ( 'NONE',  ( 0.0000000000000000000, 0.0000000000000000000, 9.014110871629098300 ) ) ;
#134 = EDGE_CURVE ( 'NONE', #70, #38, #199, .T. ) ;
#135 = EDGE_LOOP ( 'NONE', ( #88, #193, #45, #147, #172 ) ) ;
#136 = DIRECTION ( 'NONE',  ( 1.000000000000000000, 0.0000000000000000000, 0.0000000000000000000 ) ) ;
#137 = ADVANCED_FACE ( 'NONE', ( #91 ), #95, .T. ) ;
#138 = VECTOR ( 'NONE', #321, 1000.000000000000000 ) ;
#139 = DIRECTION ( 'NONE',  ( 1.000000000000000000, 0.0000000000000000000, 0.0000000000000000000 ) ) ;
#140 = VECTOR ( 'NONE', #97, 1000.000000000000100 ) ;
#141 = ORIENTED_EDGE ( 'NONE', *, *, #39, .F. ) ;
#142 = ORIENTED_EDGE ( 'NONE', *, *, #77, .F. ) ;
#143 = LOCAL_TIME ( 16, 54, 56.00000000000000000, #271 ) ;
#144 = PRODUCT_DEFINITION_SHAPE ( 'NONE', 'NONE',  #241 ) ;
#145 = CC_DESIGN_APPROVAL ( #189, ( #237 ) ) ;
#146 = CARTESIAN_POINT ( 'NONE',  ( 0.0000000000000000000, 0.0000000000000000000, 9.014110871629098300 ) ) ;
#147 = ORIENTED_EDGE ( 'NONE', *, *, #205, .T. ) ;
#148 = VERTEX_POINT ( 'NONE', #265 ) ;
#149 = DATE_AND_TIME ( #252, #143 ) ;
#150 = CC_DESIGN_PERSON_AND_ORGANIZATION_ASSIGNMENT ( #118, #222, ( #237 ) ) ;
#151 = DATE_TIME_ROLE ( 'creation_date' ) ;
#152 = DIRECTION ( 'NONE',  ( 0.0000000000000000000, 1.000000000000000000, 0.0000000000000000000 ) ) ;
#153 = AXIS2_PLACEMENT_3D ( 'NONE', #311, #71, #168 ) ;
#154 = PERSON_AND_ORGANIZATION ( #18, #210 ) ;
#155 = FACE_OUTER_BOUND ( 'NONE', #158, .T. ) ;
#156 = FACE_OUTER_BOUND ( 'NONE', #117, .T. ) ;
#157 = CARTESIAN_POINT ( 'NONE',  ( -6.165661994051896000, 0.0000000000000000000, 2.185889128370901400 ) ) ;
#158 = EDGE_LOOP ( 'NONE', ( #142, #61, #184, #98, #180 ) ) ;
#159 = DATE_AND_TIME ( #248, #279 ) ;
#160 = FACE_OUTER_BOUND ( 'NONE', #221, .T. ) ;
#161 = EDGE_LOOP ( 'NONE', ( #230, #302, #66, #276 ) ) ;
#162 = AXIS2_PLACEMENT_3D ( 'NONE', #146, #22, #72 ) ;
#163 = PRODUCT ( '4343-E0W', '4343-E0W', '', ( #164 ) ) ;
#164 = MECHANICAL_CONTEXT ( 'NONE', #192, 'mechanical' ) ;
#165 = CARTESIAN_POINT ( 'NONE',  ( 0.0000000000000000000, 0.0000000000000000000, -1.935889128370900300 ) ) ;
#166 = EDGE_CURVE ( 'NONE', #51, #128, #54, .T. ) ;
#167 = APPROVAL_DATE_TIME ( #159, #189 ) ;
#168 = DIRECTION ( 'NONE',  ( -1.000000000000000000, 0.0000000000000000000, 0.0000000000000000000 ) ) ;
#169 = DIRECTION ( 'NONE',  ( -1.000000000000000000, 0.0000000000000000000, 0.0000000000000000000 ) ) ;
#170 = FACE_OUTER_BOUND ( 'NONE', #290, .T. ) ;
#171 = VERTEX_POINT ( 'NONE', #114 ) ;
#172 = ORIENTED_EDGE ( 'NONE', *, *, #48, .F. ) ;
#173 = CC_DESIGN_APPROVAL ( #93, ( #241 ) ) ;
#174 = DIRECTION ( 'NONE',  ( -0.0000000000000000000, -0.0000000000000000000, 1.000000000000000000 ) ) ;
#175 = CC_DESIGN_SECURITY_CLASSIFICATION ( #226, ( #237 ) ) ;
#176 = DIRECTION ( 'NONE',  ( 0.0000000000000000000, 0.0000000000000000000, -1.000000000000000000 ) ) ;
#177 = VECTOR ( 'NONE', #262, 1000.000000000000000 ) ;
#178 = APPROVAL_DATE_TIME ( #149, #93 ) ;
#179 = AXIS2_PLACEMENT_3D ( 'NONE', #56, #183, #74 ) ;
#180 = ORIENTED_EDGE ( 'NONE', *, *, #293, .F. ) ;
#181 = DIRECTION ( 'NONE',  ( 1.000000000000000000, 0.0000000000000000000, 0.0000000000000000000 ) ) ;
#182 = ORIENTED_EDGE ( 'NONE', *, *, #227, .T. ) ;
#183 = DIRECTION ( 'NONE',  ( -1.000000000000000000, 1.224646799147353200E-016, 0.0000000000000000000 ) ) ;
#184 = ORIENTED_EDGE ( 'NONE', *, *, #32, .F. ) ;
#185 = CARTESIAN_POINT ( 'NONE',  ( 0.0000000000000000000, 0.0000000000000000000, -2.185889128370902300 ) ) ;
#186 = AXIS2_PLACEMENT_3D ( 'NONE', #297, #126, #90 ) ;
#187 = ORIENTED_EDGE ( 'NONE', *, *, #227, .F. ) ;
#188 = EDGE_LOOP ( 'NONE', ( #69, #182, #52, #57 ) ) ;
#189 = APPROVAL ( #204, 'UNSPECIFIED' ) ;
#190 = DIRECTION ( 'NONE',  ( -0.0000000000000000000, -0.0000000000000000000, 1.000000000000000000 ) ) ;
#191 = LINE ( 'NONE', #83, #31 ) ;
#192 = APPLICATION_CONTEXT ( 'configuration controlled 3d designs of mechanical parts and assemblies' ) ;
#193 = ORIENTED_EDGE ( 'NONE', *, *, #15, .F. ) ;
#194 = ADVANCED_FACE ( 'NONE', ( #170 ), #228, .T. ) ;
#195 = DIRECTION ( 'NONE',  ( -0.0000000000000000000, -0.0000000000000000000, 1.000000000000000000 ) ) ;
#196 = PERSON_AND_ORGANIZATION_ROLE ( 'creator' ) ;
#197 = VECTOR ( 'NONE', #53, 1000.000000000000000 ) ;
#198 = APPROVAL_STATUS ( 'not_yet_approved' ) ;
#199 = CIRCLE ( 'NONE', #162, 9.199999999999999300 ) ;
#200 = CIRCLE ( 'NONE', #153, 6.350000000000001400 ) ;
#201 = CARTESIAN_POINT ( 'NONE',  ( 0.0000000000000000000, 0.0000000000000000000, 9.014110871629098300 ) ) ;
#202 = AXIS2_PLACEMENT_3D ( 'NONE', #131, #255, #33 ) ;
#203 = CARTESIAN_POINT ( 'NONE',  ( 0.0000000000000000000, 0.0000000000000000000, -1.935889128370900300 ) ) ;
#204 = APPROVAL_STATUS ( 'not_yet_approved' ) ;
#205 = EDGE_CURVE ( 'NONE', #296, #171, #275, .T. ) ;
#206 = PLANE ( 'NONE',  #86 ) ;
#207 = CARTESIAN_POINT ( 'NONE',  ( 0.0000000000000000000, 0.0000000000000000000, -1.935889128370900300 ) ) ;
#208 = APPROVAL_DATE_TIME ( #316, #73 ) ;
#209 = ORIENTED_EDGE ( 'NONE', *, *, #28, .T. ) ;
#210 = ORGANIZATION ( 'UNSPECIFIED', 'UNSPECIFIED', '' ) ;
#211 = APPROVAL_ROLE ( '' ) ;
#212 = DIRECTION ( 'NONE',  ( -1.000000000000000000, 0.0000000000000000000, 0.0000000000000000000 ) ) ;
#213 = SPHERICAL_SURFACE ( 'NONE', #63, 9.199999999999999300 ) ;
#214 = ADVANCED_FACE ( 'NONE', ( #64 ), #16, .F. ) ;
#215 = CC_DESIGN_APPROVAL ( #73, ( #226 ) ) ;
#216 = CARTESIAN_POINT ( 'NONE',  ( 6.099999999999998800, 0.0000000000000000000, -2.185889128370902300 ) ) ;
#217 = APPROVAL_ROLE ( '' ) ;
#218 = PERSON_AND_ORGANIZATION_ROLE ( 'creator' ) ;
#219 = AXIS2_PLACEMENT_3D ( 'NONE', #40, #176, #130 ) ;
#220 = AXIS2_PLACEMENT_3D ( 'NONE', #7, #242, #301 ) ;
#221 = EDGE_LOOP ( 'NONE', ( #121, #318, #250, #58 ) ) ;
#222 = PERSON_AND_ORGANIZATION_ROLE ( 'design_supplier' ) ;
#223 =( NAMED_UNIT ( * ) PLANE_ANGLE_UNIT ( ) SI_UNIT ( $, .RADIAN. ) );
#224 = APPLICATION_PROTOCOL_DEFINITION ( 'international standard', 'config_control_design', 1994, #192 ) ;
#225 = EDGE_CURVE ( 'NONE', #148, #55, #233, .T. ) ;
#226 = SECURITY_CLASSIFICATION ( '', '', #259 ) ;
#227 = EDGE_CURVE ( 'NONE', #70, #14, #42, .T. ) ;
#228 = CONICAL_SURFACE ( 'NONE', #25, 6.350000000000001400, 0.7853981633974500600 ) ;
#229 = ADVANCED_BREP_SHAPE_REPRESENTATION ( '4343-E0W', ( #292, #123 ), #232 ) ;
#230 = ORIENTED_EDGE ( 'NONE', *, *, #166, .F. ) ;
#231 = CARTESIAN_POINT ( 'NONE',  ( 0.0000000000000000000, 0.0000000000000000000, 2.185889128370902300 ) ) ;
#232 =( GEOMETRIC_REPRESENTATION_CONTEXT ( 3 ) GLOBAL_UNCERTAINTY_ASSIGNED_CONTEXT ( ( #2 ) ) GLOBAL_UNIT_ASSIGNED_CONTEXT ( ( #272, #223, #99 ) ) REPRESENTATION_CONTEXT ( 'NONE', 'WORKASPACE' ) );
#233 = CIRCLE ( 'NONE', #278, 6.350000000000001400 ) ;
#234 = PERSON_AND_ORGANIZATION ( #18, #210 ) ;
#235 = ADVANCED_FACE ( 'NONE', ( #109 ), #206, .F. ) ;
#236 = DIRECTION ( 'NONE',  ( -0.0000000000000000000, -0.0000000000000000000, 1.000000000000000000 ) ) ;
#237 = PRODUCT_DEFINITION_FORMATION_WITH_SPECIFIED_SOURCE ( 'ANY', '', #163, .NOT_KNOWN. ) ;
#238 = CIRCLE ( 'NONE', #78, 6.165661994051896000 ) ;
#239 = ORIENTED_EDGE ( 'NONE', *, *, #48, .T. ) ;
#240 = DATE_TIME_ROLE ( 'classification_date' ) ;
#241 = PRODUCT_DEFINITION ( 'UNKNOWN', '', #237, #67 ) ;
#242 = DIRECTION ( 'NONE',  ( 0.0000000000000000000, 0.0000000000000000000, -1.000000000000000000 ) ) ;
#243 = ORIENTED_EDGE ( 'NONE', *, *, #306, .F. ) ;
#244 = CARTESIAN_POINT ( 'NONE',  ( 0.0000000000000000000, 0.0000000000000000000, 0.0000000000000000000 ) ) ;
#245 = ORIENTED_EDGE ( 'NONE', *, *, #39, .T. ) ;
#246 = DIRECTION ( 'NONE',  ( 0.0000000000000000000, 1.000000000000000000, 0.0000000000000000000 ) ) ;
#247 = APPLICATION_CONTEXT ( 'configuration controlled 3d designs of mechanical parts and assemblies' ) ;
#248 = CALENDAR_DATE ( 2015, 17, 6 ) ;
#249 = CARTESIAN_POINT ( 'NONE',  ( 6.350000000000001400, 0.0000000000000000000, -0.1858891283709023000 ) ) ;
#250 = ORIENTED_EDGE ( 'NONE', *, *, #32, .T. ) ;
#251 = ORIENTED_EDGE ( 'NONE', *, *, #293, .T. ) ;
#252 = CALENDAR_DATE ( 2015, 17, 6 ) ;
#253 = CARTESIAN_POINT ( 'NONE',  ( 6.350000000000001400, 0.0000000000000000000, -1.935889128370900300 ) ) ;
#254 = COORDINATED_UNIVERSAL_TIME_OFFSET ( 5, 0, .BEHIND. ) ;
#255 = DIRECTION ( 'NONE',  ( -0.0000000000000000000, -0.0000000000000000000, 1.000000000000000000 ) ) ;
#256 = CIRCLE ( 'NONE', #219, 6.350000000000001400 ) ;
#257 = EDGE_LOOP ( 'NONE', ( #245, #125 ) ) ;
#258 = EDGE_LOOP ( 'NONE', ( #300, #96, #209, #239 ) ) ;
#259 = SECURITY_CLASSIFICATION_LEVEL ( 'unclassified' ) ;
#260 = CIRCLE ( 'NONE', #107, 6.165661994051896000 ) ;
#261 = CC_DESIGN_PERSON_AND_ORGANIZATION_ASSIGNMENT ( #154, #218, ( #237 ) ) ;
#262 = DIRECTION ( 'NONE',  ( -0.7071067811865487900, 8.659560562354950100E-017, 0.7071067811865463500 ) ) ;
#263 = LOCAL_TIME ( 16, 54, 56.00000000000000000, #254 ) ;
#264 = CARTESIAN_POINT ( 'NONE',  ( -6.350000000000001400, 7.776507174585694100E-016, -1.935889128370900300 ) ) ;
#265 = CARTESIAN_POINT ( 'NONE',  ( 6.350000000000001400, 0.0000000000000000000, -1.935889128370900300 ) ) ;
#266 = CIRCLE ( 'NONE', #202, 6.165661994051896000 ) ;
#267 = APPROVAL_ROLE ( '' ) ;
#268 = ORIENTED_EDGE ( 'NONE', *, *, #17, .T. ) ;
#269 = CARTESIAN_POINT ( 'NONE',  ( 6.350000000000001400, 0.0000000000000000000, 2.106971846492246200 ) ) ;
#270 = DIRECTION ( 'NONE',  ( 0.0000000000000000000, 0.0000000000000000000, 1.000000000000000000 ) ) ;
#271 = COORDINATED_UNIVERSAL_TIME_OFFSET ( 5, 0, .BEHIND. ) ;
#272 =( LENGTH_UNIT ( ) NAMED_UNIT ( * ) SI_UNIT ( .MILLI., .METRE. ) );
#273 = CARTESIAN_POINT ( 'NONE',  ( 0.0000000000000000000, 5.633375276077824100E-016, -0.1858891283709023000 ) ) ;
#274 = CARTESIAN_POINT ( 'NONE',  ( 0.0000000000000000000, 6.165661994051896000, 2.185889128370902800 ) ) ;
#275 = LINE ( 'NONE', #157, #140 ) ;
#276 = ORIENTED_EDGE ( 'NONE', *, *, #9, .F. ) ;
#277 = CC_DESIGN_PERSON_AND_ORGANIZATION_ASSIGNMENT ( #124, #104, ( #226 ) ) ;
#278 = AXIS2_PLACEMENT_3D ( 'NONE', #207, #106, #11 ) ;
#279 = LOCAL_TIME ( 16, 54, 56.00000000000000000, #294 ) ;
#280 = AXIS2_PLACEMENT_3D ( 'NONE', #110, #236, #298 ) ;
#281 = CONICAL_SURFACE ( 'NONE', #220, 6.165661994051896000, 1.166292882935018300 ) ;
#282 = AXIS2_PLACEMENT_3D ( 'NONE', #44, #65, #112 ) ;
#283 = CALENDAR_DATE ( 2015, 17, 6 ) ;
#284 = DATE_AND_TIME ( #283, #263 ) ;
#285 = PERSON_AND_ORGANIZATION ( #18, #210 ) ;
#286 = CC_DESIGN_DATE_AND_TIME_ASSIGNMENT ( #10, #240, ( #226 ) ) ;
#287 = ADVANCED_FACE ( 'NONE', ( #155 ), #281, .T. ) ;
#288 = AXIS2_PLACEMENT_3D ( 'NONE', #165, #195, #41 ) ;
#289 = CARTESIAN_POINT ( 'NONE',  ( -6.350000000000001400, 7.776507174585694100E-016, -1.935889128370900300 ) ) ;
#290 = EDGE_LOOP ( 'NONE', ( #243, #141, #94, #103 ) ) ;
#291 = CC_DESIGN_PERSON_AND_ORGANIZATION_ASSIGNMENT ( #304, #29, ( #163 ) ) ;
#292 = MANIFOLD_SOLID_BREP ( '4343-001-1-solid1', #6 ) ;
#293 = EDGE_CURVE ( 'NONE', #38, #296, #266, .T. ) ;
#294 = COORDINATED_UNIVERSAL_TIME_OFFSET ( 5, 0, .BEHIND. ) ;
#295 = LINE ( 'NONE', #253, #138 ) ;
#296 = VERTEX_POINT ( 'NONE', #59 ) ;
#297 = CARTESIAN_POINT ( 'NONE',  ( 0.0000000000000000000, 0.0000000000000000000, -2.185889128370902300 ) ) ;
#298 = DIRECTION ( 'NONE',  ( 1.000000000000000000, 0.0000000000000000000, 0.0000000000000000000 ) ) ;
#299 = CARTESIAN_POINT ( 'NONE',  ( 0.0000000000000000000, 0.0000000000000000000, 2.185889128370902300 ) ) ;
#300 = ORIENTED_EDGE ( 'NONE', *, *, #76, .F. ) ;
#301 = DIRECTION ( 'NONE',  ( -1.000000000000000000, 0.0000000000000000000, 0.0000000000000000000 ) ) ;
#302 = ORIENTED_EDGE ( 'NONE', *, *, #306, .T. ) ;
#303 = VERTEX_POINT ( 'NONE', #115 ) ;
#304 = PERSON_AND_ORGANIZATION ( #18, #210 ) ;
#305 = DIRECTION ( 'NONE',  ( -0.0000000000000000000, -0.0000000000000000000, 1.000000000000000000 ) ) ;
#306 = EDGE_CURVE ( 'NONE', #51, #55, #120, .T. ) ;
#307 = PERSON_AND_ORGANIZATION ( #18, #210 ) ;
#308 = AXIS2_PLACEMENT_3D ( 'NONE', #312, #84, #108 ) ;
#309 = EDGE_CURVE ( 'NONE', #303, #23, #49, .T. ) ;
#310 = ADVANCED_FACE ( 'NONE', ( #160 ), #92, .T. ) ;
#311 = CARTESIAN_POINT ( 'NONE',  ( 0.0000000000000000000, 0.0000000000000000000, 2.106971846492246200 ) ) ;
#312 = CARTESIAN_POINT ( 'NONE',  ( 0.0000000000000000000, 0.0000000000000000000, -0.1858891283709023000 ) ) ;
#313 = CIRCLE ( 'NONE', #282, 6.350000000000001400 ) ;
#314 = CARTESIAN_POINT ( 'NONE',  ( 0.0000000000000000000, 0.0000000000000000000, -2.185889128370902300 ) ) ;
#315 = APPLICATION_PROTOCOL_DEFINITION ( 'international standard', 'config_control_design', 1994, #247 ) ;
#316 = DATE_AND_TIME ( #89, #20 ) ;
#317 = CIRCLE ( 'NONE', #81, 6.165661994051896000 ) ;
#318 = ORIENTED_EDGE ( 'NONE', *, *, #76, .T. ) ;
#319 = APPROVAL_PERSON_ORGANIZATION ( #307, #189, #211 ) ;
#320 = ADVANCED_FACE ( 'NONE', ( #156 ), #213, .F. ) ;
#321 = DIRECTION ( 'NONE',  ( 0.7071067811865487900, 0.0000000000000000000, 0.7071067811865463500 ) ) ;
ENDSEC;
END-ISO-10303-21;
