ISO-10303-21;
HEADER;
FILE_DESCRIPTION (( 'STEP AP203' ),
    '1' );
FILE_NAME ('Web Model 46702_31437.step',
    '2017-04-10T17:42:54',
    ( '' ),
    ( '' ),
    'SwSTEP 2.0',
    'SolidWorks 2016',
    '' );
FILE_SCHEMA (( 'CONFIG_CONTROL_DESIGN' ));
ENDSEC;

DATA;
#1 = CARTESIAN_POINT ( 'NONE',  ( -12.49999999999999600, -19.00000000000000400, 3.000000000000000000 ) ) ;
#2 = DATE_TIME_ROLE ( 'classification_date' ) ;
#3 = AXIS2_PLACEMENT_3D ( 'NONE', #69, #55, #165 ) ;
#4 = VERTEX_POINT ( 'NONE', #86 ) ;
#5 = CC_DESIGN_PERSON_AND_ORGANIZATION_ASSIGNMENT ( #134, #24, ( #202 ) ) ;
#6 = VECTOR ( 'NONE', #46, 1000.000000000000000 ) ;
#7 = DATE_AND_TIME ( #204, #68 ) ;
#8 = EDGE_LOOP ( 'NONE', ( #223, #184, #78, #157 ) ) ;
#9 = LOCAL_TIME ( 13, 42, 54.00000000000000000, #152 ) ;
#10 = ORIENTED_EDGE ( 'NONE', *, *, #66, .F. ) ;
#11 = CC_DESIGN_APPROVAL ( #225, ( #164 ) ) ;
#12 = VECTOR ( 'NONE', #28, 1000.000000000000000 ) ;
#13 = ADVANCED_FACE ( 'NONE', ( #42 ), #67, .F. ) ;
#14 = ORIENTED_EDGE ( 'NONE', *, *, #44, .T. ) ;
#15 = DIRECTION ( 'NONE',  ( -0.0000000000000000000, -0.0000000000000000000, -1.000000000000000000 ) ) ;
#16 = ORIENTED_EDGE ( 'NONE', *, *, #45, .F. ) ;
#17 = LINE ( 'NONE', #169, #116 ) ;
#18 = PLANE ( 'NONE',  #179 ) ;
#19 = EDGE_CURVE ( 'NONE', #172, #51, #226, .T. ) ;
#20 = COORDINATED_UNIVERSAL_TIME_OFFSET ( 5, 0, .BEHIND. ) ;
#21 = CARTESIAN_POINT ( 'NONE',  ( 12.49999999999999800, 18.99999999999999600, 3.000000000000000000 ) ) ;
#22 = VECTOR ( 'NONE', #221, 1000.000000000000000 ) ;
#23 = DIRECTION ( 'NONE',  ( 0.0000000000000000000, 0.0000000000000000000, 1.000000000000000000 ) ) ;
#24 = PERSON_AND_ORGANIZATION_ROLE ( 'creator' ) ;
#25 = DIRECTION ( 'NONE',  ( -0.0000000000000000000, 0.0000000000000000000, 1.000000000000000000 ) ) ;
#26 = FACE_OUTER_BOUND ( 'NONE', #106, .T. ) ;
#27 = LINE ( 'NONE', #76, #123 ) ;
#28 = DIRECTION ( 'NONE',  ( -0.0000000000000000000, -0.0000000000000000000, -1.000000000000000000 ) ) ;
#29 = PERSON_AND_ORGANIZATION_ROLE ( 'creator' ) ;
#30 = ORIENTED_EDGE ( 'NONE', *, *, #74, .T. ) ;
#31 = ADVANCED_FACE ( 'NONE', ( #97 ), #190, .F. ) ;
#32 = FACE_OUTER_BOUND ( 'NONE', #93, .T. ) ;
#33 = PRODUCT_DEFINITION_SHAPE ( 'NONE', 'NONE',  #202 ) ;
#34 = PERSON ( 'UNSPECIFIED', 'UNSPECIFIED', 'UNSPECIFIED', ('UNSPECIFIED'), ('UNSPECIFIED'), ('UNSPECIFIED') ) ;
#35 = VERTEX_POINT ( 'NONE', #39 ) ;
#36 = ORIENTED_EDGE ( 'NONE', *, *, #124, .F. ) ;
#37 = CALENDAR_DATE ( 2017, 10, 4 ) ;
#38 = LINE ( 'NONE', #81, #160 ) ;
#39 = CARTESIAN_POINT ( 'NONE',  ( 12.49999999999999800, 18.99999999999999600, 0.0000000000000000000 ) ) ;
#40 = COORDINATED_UNIVERSAL_TIME_OFFSET ( 5, 0, .BEHIND. ) ;
#41 = DIRECTION ( 'NONE',  ( -1.000000000000000000, -0.0000000000000000000, -0.0000000000000000000 ) ) ;
#42 = FACE_OUTER_BOUND ( 'NONE', #8, .T. ) ;
#43 =( LENGTH_UNIT ( ) NAMED_UNIT ( * ) SI_UNIT ( .MILLI., .METRE. ) );
#44 = EDGE_CURVE ( 'NONE', #177, #172, #63, .T. ) ;
#45 = EDGE_CURVE ( 'NONE', #177, #192, #58, .T. ) ;
#46 = DIRECTION ( 'NONE',  ( -0.0000000000000000000, -0.0000000000000000000, -1.000000000000000000 ) ) ;
#47 = DIRECTION ( 'NONE',  ( -1.369518533665900300E-016, 1.000000000000000000, -0.0000000000000000000 ) ) ;
#48 = ORIENTED_EDGE ( 'NONE', *, *, #87, .T. ) ;
#49 = ORIENTED_EDGE ( 'NONE', *, *, #87, .F. ) ;
#50 = DIRECTION ( 'NONE',  ( 9.130123557772669600E-017, -1.000000000000000000, 0.0000000000000000000 ) ) ;
#51 = VERTEX_POINT ( 'NONE', #127 ) ;
#52 = CLOSED_SHELL ( 'NONE', ( #31, #216, #13, #161, #144, #84 ) ) ;
#53 = DIRECTION ( 'NONE',  ( -0.0000000000000000000, 0.0000000000000000000, 1.000000000000000000 ) ) ;
#54 = SHAPE_DEFINITION_REPRESENTATION ( #33, #162 ) ;
#55 = DIRECTION ( 'NONE',  ( 1.000000000000000000, 9.130123557772669600E-017, -0.0000000000000000000 ) ) ;
#56 = ORIENTED_EDGE ( 'NONE', *, *, #140, .T. ) ;
#57 = VECTOR ( 'NONE', #232, 1000.000000000000000 ) ;
#58 = LINE ( 'NONE', #233, #12 ) ;
#59 = VECTOR ( 'NONE', #50, 1000.000000000000000 ) ;
#60 = ORIENTED_EDGE ( 'NONE', *, *, #65, .F. ) ;
#61 = CARTESIAN_POINT ( 'NONE',  ( -12.50000000000000000, 18.99999999999999600, 3.000000000000000000 ) ) ;
#62 =( GEOMETRIC_REPRESENTATION_CONTEXT ( 3 ) GLOBAL_UNCERTAINTY_ASSIGNED_CONTEXT ( ( #170 ) ) GLOBAL_UNIT_ASSIGNED_CONTEXT ( ( #43, #173, #139 ) ) REPRESENTATION_CONTEXT ( 'NONE', 'WORKASPACE' ) );
#63 = LINE ( 'NONE', #235, #212 ) ;
#64 = ORIENTED_EDGE ( 'NONE', *, *, #219, .F. ) ;
#65 = EDGE_CURVE ( 'NONE', #51, #237, #150, .T. ) ;
#66 = EDGE_CURVE ( 'NONE', #237, #35, #38, .T. ) ;
#67 = PLANE ( 'NONE',  #3 ) ;
#68 = LOCAL_TIME ( 13, 42, 54.00000000000000000, #214 ) ;
#69 = CARTESIAN_POINT ( 'NONE',  ( -12.50000000000000000, 18.99999999999999600, 3.000000000000000000 ) ) ;
#70 = DESIGN_CONTEXT ( 'detailed design', #208, 'design' ) ;
#71 = CALENDAR_DATE ( 2017, 10, 4 ) ;
#72 = APPROVAL_ROLE ( '' ) ;
#73 = ORIENTED_EDGE ( 'NONE', *, *, #229, .F. ) ;
#74 = EDGE_CURVE ( 'NONE', #172, #4, #27, .T. ) ;
#75 = PERSON_AND_ORGANIZATION_ROLE ( 'design_owner' ) ;
#76 = CARTESIAN_POINT ( 'NONE',  ( -12.49999999999999600, -19.00000000000000400, 3.000000000000000000 ) ) ;
#77 = CARTESIAN_POINT ( 'NONE',  ( 12.50000000000000400, -19.00000000000000400, 3.000000000000000000 ) ) ;
#78 = ORIENTED_EDGE ( 'NONE', *, *, #44, .F. ) ;
#79 = LOCAL_TIME ( 13, 42, 54.00000000000000000, #40 ) ;
#80 = DATE_AND_TIME ( #37, #79 ) ;
#81 = CARTESIAN_POINT ( 'NONE',  ( 12.49999999999999800, 18.99999999999999600, 0.0000000000000000000 ) ) ;
#82 = ORGANIZATION ( 'UNSPECIFIED', 'UNSPECIFIED', '' ) ;
#83 = PLANE ( 'NONE',  #94 ) ;
#84 = ADVANCED_FACE ( 'NONE', ( #234 ), #183, .F. ) ;
#85 = PERSON_AND_ORGANIZATION ( #34, #82 ) ;
#86 = CARTESIAN_POINT ( 'NONE',  ( 12.50000000000000400, -19.00000000000000400, 3.000000000000000000 ) ) ;
#87 = EDGE_CURVE ( 'NONE', #35, #192, #218, .T. ) ;
#88 = DIRECTION ( 'NONE',  ( 0.0000000000000000000, -0.0000000000000000000, 1.000000000000000000 ) ) ;
#89 = SECURITY_CLASSIFICATION ( '', '', #142 ) ;
#90 = CARTESIAN_POINT ( 'NONE',  ( 12.49999999999999800, 18.99999999999999600, 3.000000000000000000 ) ) ;
#91 = COORDINATED_UNIVERSAL_TIME_OFFSET ( 5, 0, .BEHIND. ) ;
#92 = APPROVAL_ROLE ( '' ) ;
#93 = EDGE_LOOP ( 'NONE', ( #166, #73, #125, #118 ) ) ;
#94 = AXIS2_PLACEMENT_3D ( 'NONE', #207, #25, #158 ) ;
#95 = CARTESIAN_POINT ( 'NONE',  ( -12.50000000000000000, 18.99999999999999600, 0.0000000000000000000 ) ) ;
#96 = CC_DESIGN_APPROVAL ( #112, ( #202 ) ) ;
#97 = FACE_OUTER_BOUND ( 'NONE', #111, .T. ) ;
#98 = APPROVAL_PERSON_ORGANIZATION ( #101, #181, #195 ) ;
#99 = AXIS2_PLACEMENT_3D ( 'NONE', #130, #23, #121 ) ;
#100 = LINE ( 'NONE', #90, #6 ) ;
#101 = PERSON_AND_ORGANIZATION ( #34, #82 ) ;
#102 = PERSON_AND_ORGANIZATION ( #34, #82 ) ;
#103 = PERSON_AND_ORGANIZATION ( #34, #82 ) ;
#104 = ORIENTED_EDGE ( 'NONE', *, *, #124, .T. ) ;
#105 = VECTOR ( 'NONE', #110, 1000.000000000000000 ) ;
#106 = EDGE_LOOP ( 'NONE', ( #48, #16, #36, #182 ) ) ;
#107 = DIRECTION ( 'NONE',  ( 0.0000000000000000000, -0.0000000000000000000, -1.000000000000000000 ) ) ;
#108 = CC_DESIGN_PERSON_AND_ORGANIZATION_ASSIGNMENT ( #103, #75, ( #199 ) ) ;
#109 = AXIS2_PLACEMENT_3D ( 'NONE', #203, #236, #193 ) ;
#110 = DIRECTION ( 'NONE',  ( -0.0000000000000000000, -0.0000000000000000000, -1.000000000000000000 ) ) ;
#111 = EDGE_LOOP ( 'NONE', ( #222, #163, #133, #113 ) ) ;
#112 = APPROVAL ( #201, 'UNSPECIFIED' ) ;
#113 = ORIENTED_EDGE ( 'NONE', *, *, #229, .T. ) ;
#114 = PLANE ( 'NONE',  #231 ) ;
#115 = MANIFOLD_SOLID_BREP ( 'Extrude1', #52 ) ;
#116 = VECTOR ( 'NONE', #41, 1000.000000000000000 ) ;
#117 = CC_DESIGN_SECURITY_CLASSIFICATION ( #89, ( #164 ) ) ;
#118 = ORIENTED_EDGE ( 'NONE', *, *, #19, .T. ) ;
#119 = CARTESIAN_POINT ( 'NONE',  ( -12.49999999999999600, -19.00000000000000400, 3.000000000000000000 ) ) ;
#120 = CC_DESIGN_PERSON_AND_ORGANIZATION_ASSIGNMENT ( #171, #159, ( #164 ) ) ;
#121 = DIRECTION ( 'NONE',  ( 1.000000000000000000, 0.0000000000000000000, 0.0000000000000000000 ) ) ;
#122 = LINE ( 'NONE', #77, #128 ) ;
#123 = VECTOR ( 'NONE', #145, 1000.000000000000000 ) ;
#124 = EDGE_CURVE ( 'NONE', #206, #177, #17, .T. ) ;
#125 = ORIENTED_EDGE ( 'NONE', *, *, #74, .F. ) ;
#126 = FACE_OUTER_BOUND ( 'NONE', #186, .T. ) ;
#127 = CARTESIAN_POINT ( 'NONE',  ( -12.49999999999999600, -19.00000000000000400, 0.0000000000000000000 ) ) ;
#128 = VECTOR ( 'NONE', #15, 1000.000000000000000 ) ;
#129 = PRODUCT_RELATED_PRODUCT_CATEGORY ( 'detail', '', ( #199 ) ) ;
#130 = CARTESIAN_POINT ( 'NONE',  ( 0.0000000000000000000, 0.0000000000000000000, 0.0000000000000000000 ) ) ;
#131 = CARTESIAN_POINT ( 'NONE',  ( -12.50000000000000000, 18.99999999999999600, 3.000000000000000000 ) ) ;
#132 = CARTESIAN_POINT ( 'NONE',  ( 12.50000000000000400, -19.00000000000000400, 0.0000000000000000000 ) ) ;
#133 = ORIENTED_EDGE ( 'NONE', *, *, #140, .F. ) ;
#134 = PERSON_AND_ORGANIZATION ( #34, #82 ) ;
#135 = DATE_TIME_ROLE ( 'creation_date' ) ;
#136 = LOCAL_TIME ( 13, 42, 54.00000000000000000, #91 ) ;
#137 = PERSON_AND_ORGANIZATION_ROLE ( 'classification_officer' ) ;
#138 = APPROVAL_STATUS ( 'not_yet_approved' ) ;
#139 =( NAMED_UNIT ( * ) SI_UNIT ( $, .STERADIAN. ) SOLID_ANGLE_UNIT ( ) );
#140 = EDGE_CURVE ( 'NONE', #4, #206, #215, .T. ) ;
#141 = CARTESIAN_POINT ( 'NONE',  ( -12.49999999999999600, -19.00000000000000400, 3.000000000000000000 ) ) ;
#142 = SECURITY_CLASSIFICATION_LEVEL ( 'unclassified' ) ;
#143 = DIRECTION ( 'NONE',  ( 1.000000000000000000, 0.0000000000000000000, 0.0000000000000000000 ) ) ;
#144 = ADVANCED_FACE ( 'NONE', ( #126 ), #83, .T. ) ;
#145 = DIRECTION ( 'NONE',  ( 1.000000000000000000, 0.0000000000000000000, 0.0000000000000000000 ) ) ;
#146 = APPROVAL_DATE_TIME ( #187, #112 ) ;
#147 = LINE ( 'NONE', #180, #59 ) ;
#148 = DIRECTION ( 'NONE',  ( 0.0000000000000000000, 1.000000000000000000, 0.0000000000000000000 ) ) ;
#149 = MECHANICAL_CONTEXT ( 'NONE', #154, 'mechanical' ) ;
#150 = LINE ( 'NONE', #220, #156 ) ;
#151 = APPROVAL_PERSON_ORGANIZATION ( #168, #225, #92 ) ;
#152 = COORDINATED_UNIVERSAL_TIME_OFFSET ( 5, 0, .BEHIND. ) ;
#153 = CC_DESIGN_DATE_AND_TIME_ASSIGNMENT ( #178, #135, ( #202 ) ) ;
#154 = APPLICATION_CONTEXT ( 'configuration controlled 3d designs of mechanical parts and assemblies' ) ;
#155 = CALENDAR_DATE ( 2017, 10, 4 ) ;
#156 = VECTOR ( 'NONE', #143, 1000.000000000000000 ) ;
#157 = ORIENTED_EDGE ( 'NONE', *, *, #45, .T. ) ;
#158 = DIRECTION ( 'NONE',  ( 1.000000000000000000, 0.0000000000000000000, 0.0000000000000000000 ) ) ;
#159 = PERSON_AND_ORGANIZATION_ROLE ( 'design_supplier' ) ;
#160 = VECTOR ( 'NONE', #47, 1000.000000000000000 ) ;
#161 = ADVANCED_FACE ( 'NONE', ( #32 ), #114, .F. ) ;
#162 = ADVANCED_BREP_SHAPE_REPRESENTATION ( 'Web Model 46702_31437', ( #115, #99 ), #62 ) ;
#163 = ORIENTED_EDGE ( 'NONE', *, *, #200, .F. ) ;
#164 = PRODUCT_DEFINITION_FORMATION_WITH_SPECIFIED_SOURCE ( 'ANY', '', #199, .NOT_KNOWN. ) ;
#165 = DIRECTION ( 'NONE',  ( -9.130123557772669600E-017, 1.000000000000000000, 0.0000000000000000000 ) ) ;
#166 = ORIENTED_EDGE ( 'NONE', *, *, #65, .T. ) ;
#167 = DIRECTION ( 'NONE',  ( 0.0000000000000000000, -1.000000000000000000, 0.0000000000000000000 ) ) ;
#168 = PERSON_AND_ORGANIZATION ( #34, #82 ) ;
#169 = CARTESIAN_POINT ( 'NONE',  ( -12.50000000000000000, 18.99999999999999600, 3.000000000000000000 ) ) ;
#170 = UNCERTAINTY_MEASURE_WITH_UNIT (LENGTH_MEASURE( 1.000000000000000100E-005 ), #43, 'distance_accuracy_value', 'NONE');
#171 = PERSON_AND_ORGANIZATION ( #34, #82 ) ;
#172 = VERTEX_POINT ( 'NONE', #119 ) ;
#173 =( NAMED_UNIT ( * ) PLANE_ANGLE_UNIT ( ) SI_UNIT ( $, .RADIAN. ) );
#174 = EDGE_LOOP ( 'NONE', ( #10, #60, #64, #49 ) ) ;
#175 = DIRECTION ( 'NONE',  ( 9.130123557772669600E-017, -1.000000000000000000, 0.0000000000000000000 ) ) ;
#176 = APPLICATION_PROTOCOL_DEFINITION ( 'international standard', 'config_control_design', 1994, #208 ) ;
#177 = VERTEX_POINT ( 'NONE', #131 ) ;
#178 = DATE_AND_TIME ( #71, #9 ) ;
#179 = AXIS2_PLACEMENT_3D ( 'NONE', #61, #167, #107 ) ;
#180 = CARTESIAN_POINT ( 'NONE',  ( -12.50000000000000000, 18.99999999999999600, 0.0000000000000000000 ) ) ;
#181 = APPROVAL ( #224, 'UNSPECIFIED' ) ;
#182 = ORIENTED_EDGE ( 'NONE', *, *, #200, .T. ) ;
#183 = PLANE ( 'NONE',  #210 ) ;
#184 = ORIENTED_EDGE ( 'NONE', *, *, #19, .F. ) ;
#185 = CARTESIAN_POINT ( 'NONE',  ( -12.50000000000000000, 18.99999999999999600, 0.0000000000000000000 ) ) ;
#186 = EDGE_LOOP ( 'NONE', ( #56, #104, #14, #30 ) ) ;
#187 = DATE_AND_TIME ( #155, #197 ) ;
#188 = CC_DESIGN_DATE_AND_TIME_ASSIGNMENT ( #80, #2, ( #89 ) ) ;
#189 = PERSON_AND_ORGANIZATION ( #34, #82 ) ;
#190 = PLANE ( 'NONE',  #109 ) ;
#191 = CC_DESIGN_APPROVAL ( #181, ( #89 ) ) ;
#192 = VERTEX_POINT ( 'NONE', #95 ) ;
#193 = DIRECTION ( 'NONE',  ( 1.369518533665900100E-016, -1.000000000000000000, 0.0000000000000000000 ) ) ;
#194 = CALENDAR_DATE ( 2017, 10, 4 ) ;
#195 = APPROVAL_ROLE ( '' ) ;
#196 = APPROVAL_DATE_TIME ( #228, #181 ) ;
#197 = LOCAL_TIME ( 13, 42, 54.00000000000000000, #20 ) ;
#198 = APPROVAL_PERSON_ORGANIZATION ( #85, #112, #72 ) ;
#199 = PRODUCT ( 'Web Model 46702_31437', 'Web Model 46702_31437', '', ( #149 ) ) ;
#200 = EDGE_CURVE ( 'NONE', #206, #35, #100, .T. ) ;
#201 = APPROVAL_STATUS ( 'not_yet_approved' ) ;
#202 = PRODUCT_DEFINITION ( 'UNKNOWN', '', #164, #70 ) ;
#203 = CARTESIAN_POINT ( 'NONE',  ( 12.49999999999999800, 18.99999999999999600, 3.000000000000000000 ) ) ;
#204 = CALENDAR_DATE ( 2017, 10, 4 ) ;
#205 = APPROVAL_DATE_TIME ( #7, #225 ) ;
#206 = VERTEX_POINT ( 'NONE', #21 ) ;
#207 = CARTESIAN_POINT ( 'NONE',  ( 12.50000000000000400, -19.00000000000000400, 3.000000000000000000 ) ) ;
#208 = APPLICATION_CONTEXT ( 'configuration controlled 3d designs of mechanical parts and assemblies' ) ;
#209 = CARTESIAN_POINT ( 'NONE',  ( 12.49999999999999800, 18.99999999999999600, 3.000000000000000000 ) ) ;
#210 = AXIS2_PLACEMENT_3D ( 'NONE', #211, #53, #230 ) ;
#211 = CARTESIAN_POINT ( 'NONE',  ( 12.50000000000000400, -19.00000000000000400, 0.0000000000000000000 ) ) ;
#212 = VECTOR ( 'NONE', #175, 1000.000000000000000 ) ;
#213 = APPLICATION_PROTOCOL_DEFINITION ( 'international standard', 'config_control_design', 1994, #154 ) ;
#214 = COORDINATED_UNIVERSAL_TIME_OFFSET ( 5, 0, .BEHIND. ) ;
#215 = LINE ( 'NONE', #209, #22 ) ;
#216 = ADVANCED_FACE ( 'NONE', ( #26 ), #18, .F. ) ;
#217 = CC_DESIGN_PERSON_AND_ORGANIZATION_ASSIGNMENT ( #102, #137, ( #89 ) ) ;
#218 = LINE ( 'NONE', #185, #57 ) ;
#219 = EDGE_CURVE ( 'NONE', #192, #51, #147, .T. ) ;
#220 = CARTESIAN_POINT ( 'NONE',  ( -12.49999999999999600, -19.00000000000000400, 0.0000000000000000000 ) ) ;
#221 = DIRECTION ( 'NONE',  ( -1.369518533665900300E-016, 1.000000000000000000, -0.0000000000000000000 ) ) ;
#222 = ORIENTED_EDGE ( 'NONE', *, *, #66, .T. ) ;
#223 = ORIENTED_EDGE ( 'NONE', *, *, #219, .T. ) ;
#224 = APPROVAL_STATUS ( 'not_yet_approved' ) ;
#225 = APPROVAL ( #138, 'UNSPECIFIED' ) ;
#226 = LINE ( 'NONE', #141, #105 ) ;
#227 = CC_DESIGN_PERSON_AND_ORGANIZATION_ASSIGNMENT ( #189, #29, ( #164 ) ) ;
#228 = DATE_AND_TIME ( #194, #136 ) ;
#229 = EDGE_CURVE ( 'NONE', #4, #237, #122, .T. ) ;
#230 = DIRECTION ( 'NONE',  ( 1.000000000000000000, 0.0000000000000000000, 0.0000000000000000000 ) ) ;
#231 = AXIS2_PLACEMENT_3D ( 'NONE', #1, #148, #88 ) ;
#232 = DIRECTION ( 'NONE',  ( -1.000000000000000000, -0.0000000000000000000, -0.0000000000000000000 ) ) ;
#233 = CARTESIAN_POINT ( 'NONE',  ( -12.50000000000000000, 18.99999999999999600, 3.000000000000000000 ) ) ;
#234 = FACE_OUTER_BOUND ( 'NONE', #174, .T. ) ;
#235 = CARTESIAN_POINT ( 'NONE',  ( -12.50000000000000000, 18.99999999999999600, 3.000000000000000000 ) ) ;
#236 = DIRECTION ( 'NONE',  ( -1.000000000000000000, -1.369518533665900100E-016, 0.0000000000000000000 ) ) ;
#237 = VERTEX_POINT ( 'NONE', #132 ) ;
ENDSEC;
END-ISO-10303-21;
