ISO-10303-21;
HEADER;
FILE_DESCRIPTION (( 'STEP AP203' ),
    '1' );
FILE_NAME ('Web Model 41021MX_15771.step',
    '2020-10-19T17:15:08',
    ( '' ),
    ( '' ),
    'SwSTEP 2.0',
    'SolidWorks 2018',
    '' );
FILE_SCHEMA (( 'CONFIG_CONTROL_DESIGN' ));
ENDSEC;

DATA;
#1 = EDGE_CURVE ( 'NONE', #41, #124, #185, .T. ) ;
#2 = ORIENTED_EDGE ( 'NONE', *, *, #101, .T. ) ;
#3 = ADVANCED_FACE ( 'NONE', ( #20 ), #21, .F. ) ;
#4 = APPROVAL_DATE_TIME ( #202, #65 ) ;
#5 = CLOSED_SHELL ( 'NONE', ( #66, #82, #3, #166, #113, #188 ) ) ;
#6 = ORIENTED_EDGE ( 'NONE', *, *, #204, .T. ) ;
#7 = CC_DESIGN_SECURITY_CLASSIFICATION ( #183, ( #184 ) ) ;
#8 = PLANE ( 'NONE',  #206 ) ;
#9 = DIRECTION ( 'NONE',  ( 6.938893903907227145E-17, -1.000000000000000000, 0.0000000000000000000 ) ) ;
#10 = COORDINATED_UNIVERSAL_TIME_OFFSET ( 5, 0, .BEHIND. ) ;
#11 = LINE ( 'NONE', #85, #132 ) ;
#12 = DIRECTION ( 'NONE',  ( -0.0000000000000000000, -0.0000000000000000000, -1.000000000000000000 ) ) ;
#13 = CARTESIAN_POINT ( 'NONE',  ( 0.0000000000000000000, 0.0000000000000000000, 0.0000000000000000000 ) ) ;
#14 = PERSON_AND_ORGANIZATION ( #148, #108 ) ;
#15 = EDGE_CURVE ( 'NONE', #172, #214, #141, .T. ) ;
#16 = MECHANICAL_CONTEXT ( 'NONE', #109, 'mechanical' ) ;
#17 = ORIENTED_EDGE ( 'NONE', *, *, #110, .T. ) ;
#18 = AXIS2_PLACEMENT_3D ( 'NONE', #152, #46, #47 ) ;
#19 = VECTOR ( 'NONE', #173, 1000.000000000000000 ) ;
#20 = FACE_OUTER_BOUND ( 'NONE', #39, .T. ) ;
#21 = PLANE ( 'NONE',  #18 ) ;
#22 = DIRECTION ( 'NONE',  ( 1.000000000000000000, 1.387778780781445676E-16, -0.0000000000000000000 ) ) ;
#23 =( GEOMETRIC_REPRESENTATION_CONTEXT ( 3 ) GLOBAL_UNCERTAINTY_ASSIGNED_CONTEXT ( ( #131 ) ) GLOBAL_UNIT_ASSIGNED_CONTEXT ( ( #33, #221, #37 ) ) REPRESENTATION_CONTEXT ( 'NONE', 'WORKASPACE' ) );
#24 = APPROVAL_PERSON_ORGANIZATION ( #117, #53, #75 ) ;
#25 = CARTESIAN_POINT ( 'NONE',  ( 0.0000000000000000000, 0.0000000000000000000, 3.000000000000000000 ) ) ;
#26 = AXIS2_PLACEMENT_3D ( 'NONE', #142, #226, #138 ) ;
#27 = CARTESIAN_POINT ( 'NONE',  ( -12.50000000000000355, -6.250000000000001776, 3.000000000000000000 ) ) ;
#28 = CALENDAR_DATE ( 2020, 19, 10 ) ;
#29 = CARTESIAN_POINT ( 'NONE',  ( -12.50000000000000355, 6.249999999999998224, 3.000000000000000000 ) ) ;
#30 = ORIENTED_EDGE ( 'NONE', *, *, #49, .F. ) ;
#31 = CC_DESIGN_PERSON_AND_ORGANIZATION_ASSIGNMENT ( #97, #217, ( #184 ) ) ;
#32 = PLANE ( 'NONE',  #26 ) ;
#33 =( LENGTH_UNIT ( ) NAMED_UNIT ( * ) SI_UNIT ( .MILLI., .METRE. ) );
#34 = VECTOR ( 'NONE', #231, 1000.000000000000000 ) ;
#35 = APPLICATION_PROTOCOL_DEFINITION ( 'international standard', 'config_control_design', 1994, #109 ) ;
#36 = DIRECTION ( 'NONE',  ( 0.0000000000000000000, 1.000000000000000000, 0.0000000000000000000 ) ) ;
#37 =( NAMED_UNIT ( * ) SI_UNIT ( $, .STERADIAN. ) SOLID_ANGLE_UNIT ( ) );
#38 = CALENDAR_DATE ( 2020, 19, 10 ) ;
#39 = EDGE_LOOP ( 'NONE', ( #6, #194, #224, #189 ) ) ;
#40 = AXIS2_PLACEMENT_3D ( 'NONE', #13, #162, #57 ) ;
#41 = VERTEX_POINT ( 'NONE', #227 ) ;
#42 = AXIS2_PLACEMENT_3D ( 'NONE', #112, #160, #203 ) ;
#43 = FACE_OUTER_BOUND ( 'NONE', #56, .T. ) ;
#44 = ORIENTED_EDGE ( 'NONE', *, *, #210, .T. ) ;
#45 = PRODUCT_RELATED_PRODUCT_CATEGORY ( 'detail', '', ( #175 ) ) ;
#46 = DIRECTION ( 'NONE',  ( -1.000000000000000000, 0.0000000000000000000, 0.0000000000000000000 ) ) ;
#47 = DIRECTION ( 'NONE',  ( 0.0000000000000000000, 0.0000000000000000000, 1.000000000000000000 ) ) ;
#48 = EDGE_LOOP ( 'NONE', ( #2, #134, #164, #88 ) ) ;
#49 = EDGE_CURVE ( 'NONE', #41, #172, #157, .T. ) ;
#50 = DATE_AND_TIME ( #114, #87 ) ;
#51 = EDGE_LOOP ( 'NONE', ( #149, #207, #130, #144 ) ) ;
#52 = DIRECTION ( 'NONE',  ( -0.0000000000000000000, -1.000000000000000000, -0.0000000000000000000 ) ) ;
#53 = APPROVAL ( #91, 'UNSPECIFIED' ) ;
#54 = CARTESIAN_POINT ( 'NONE',  ( 12.49999999999999645, 6.250000000000000000, 3.000000000000000000 ) ) ;
#55 = PRODUCT_DEFINITION ( 'UNKNOWN', '', #184, #79 ) ;
#56 = EDGE_LOOP ( 'NONE', ( #77, #198, #154, #168 ) ) ;
#57 = DIRECTION ( 'NONE',  ( 1.000000000000000000, 0.0000000000000000000, 0.0000000000000000000 ) ) ;
#58 = CARTESIAN_POINT ( 'NONE',  ( -12.50000000000000355, 6.249999999999998224, 3.000000000000000000 ) ) ;
#59 = PERSON_AND_ORGANIZATION ( #148, #108 ) ;
#60 = VECTOR ( 'NONE', #174, 1000.000000000000000 ) ;
#61 = DATE_TIME_ROLE ( 'creation_date' ) ;
#62 = LOCAL_TIME ( 13, 15, 8.000000000000000000, #171 ) ;
#63 = VECTOR ( 'NONE', #22, 1000.000000000000000 ) ;
#64 = DATE_AND_TIME ( #38, #192 ) ;
#65 = APPROVAL ( #233, 'UNSPECIFIED' ) ;
#66 = ADVANCED_FACE ( 'NONE', ( #137 ), #32, .F. ) ;
#67 = VECTOR ( 'NONE', #170, 1000.000000000000000 ) ;
#68 = CARTESIAN_POINT ( 'NONE',  ( 12.49999999999999645, -6.249999999999998224, -3.000000000000000000 ) ) ;
#69 = CC_DESIGN_PERSON_AND_ORGANIZATION_ASSIGNMENT ( #59, #163, ( #55 ) ) ;
#70 = DIRECTION ( 'NONE',  ( 1.000000000000000000, 0.0000000000000000000, -0.0000000000000000000 ) ) ;
#71 = DIRECTION ( 'NONE',  ( 1.000000000000000000, 6.938893903907227145E-17, 0.0000000000000000000 ) ) ;
#72 = PERSON_AND_ORGANIZATION ( #148, #108 ) ;
#73 = DIRECTION ( 'NONE',  ( -1.000000000000000000, -1.387778780781445429E-16, 0.0000000000000000000 ) ) ;
#74 = CARTESIAN_POINT ( 'NONE',  ( 12.49999999999999645, 6.250000000000000000, -3.000000000000000000 ) ) ;
#75 = APPROVAL_ROLE ( '' ) ;
#76 = APPROVAL_DATE_TIME ( #123, #53 ) ;
#77 = ORIENTED_EDGE ( 'NONE', *, *, #110, .F. ) ;
#78 = CALENDAR_DATE ( 2020, 19, 10 ) ;
#79 = DESIGN_CONTEXT ( 'detailed design', #159, 'design' ) ;
#80 = COORDINATED_UNIVERSAL_TIME_OFFSET ( 5, 0, .BEHIND. ) ;
#81 = ORIENTED_EDGE ( 'NONE', *, *, #165, .F. ) ;
#82 = ADVANCED_FACE ( 'NONE', ( #225 ), #8, .F. ) ;
#83 = EDGE_LOOP ( 'NONE', ( #17, #30, #187, #98 ) ) ;
#84 = CARTESIAN_POINT ( 'NONE',  ( 12.49999999999999645, -6.249999999999998224, 3.000000000000000000 ) ) ;
#85 = CARTESIAN_POINT ( 'NONE',  ( 12.49999999999999645, 6.250000000000000000, 3.000000000000000000 ) ) ;
#86 = CARTESIAN_POINT ( 'NONE',  ( 12.49999999999999645, 6.250000000000000000, 3.000000000000000000 ) ) ;
#87 = LOCAL_TIME ( 13, 15, 8.000000000000000000, #181 ) ;
#88 = ORIENTED_EDGE ( 'NONE', *, *, #165, .T. ) ;
#89 = LINE ( 'NONE', #29, #60 ) ;
#90 = PLANE ( 'NONE',  #42 ) ;
#91 = APPROVAL_STATUS ( 'not_yet_approved' ) ;
#92 = PERSON_AND_ORGANIZATION_ROLE ( 'classification_officer' ) ;
#93 = APPROVAL ( #201, 'UNSPECIFIED' ) ;
#94 = LINE ( 'NONE', #229, #19 ) ;
#95 = VERTEX_POINT ( 'NONE', #106 ) ;
#96 = PRODUCT_DEFINITION_SHAPE ( 'NONE', 'NONE',  #55 ) ;
#97 = PERSON_AND_ORGANIZATION ( #148, #108 ) ;
#98 = ORIENTED_EDGE ( 'NONE', *, *, #122, .T. ) ;
#99 = CC_DESIGN_APPROVAL ( #65, ( #184 ) ) ;
#100 = EDGE_LOOP ( 'NONE', ( #147, #237, #81, #44 ) ) ;
#101 = EDGE_CURVE ( 'NONE', #182, #41, #104, .T. ) ;
#102 = PLANE ( 'NONE',  #146 ) ;
#103 = SHAPE_DEFINITION_REPRESENTATION ( #96, #136 ) ;
#104 = LINE ( 'NONE', #27, #34 ) ;
#105 = DIRECTION ( 'NONE',  ( -0.0000000000000000000, -0.0000000000000000000, -1.000000000000000000 ) ) ;
#106 = CARTESIAN_POINT ( 'NONE',  ( -12.50000000000000355, 6.249999999999998224, -3.000000000000000000 ) ) ;
#107 = CC_DESIGN_APPROVAL ( #53, ( #183 ) ) ;
#108 = ORGANIZATION ( 'UNSPECIFIED', 'UNSPECIFIED', '' ) ;
#109 = APPLICATION_CONTEXT ( 'configuration controlled 3d designs of mechanical parts and assemblies' ) ;
#110 = EDGE_CURVE ( 'NONE', #95, #172, #120, .T. ) ;
#111 = APPROVAL_PERSON_ORGANIZATION ( #133, #93, #177 ) ;
#112 = CARTESIAN_POINT ( 'NONE',  ( 0.0000000000000000000, 0.0000000000000000000, -3.000000000000000000 ) ) ;
#113 = ADVANCED_FACE ( 'NONE', ( #115 ), #193, .T. ) ;
#114 = CALENDAR_DATE ( 2020, 19, 10 ) ;
#115 = FACE_OUTER_BOUND ( 'NONE', #48, .T. ) ;
#116 = CC_DESIGN_DATE_AND_TIME_ASSIGNMENT ( #64, #61, ( #55 ) ) ;
#117 = PERSON_AND_ORGANIZATION ( #148, #108 ) ;
#118 = CC_DESIGN_APPROVAL ( #93, ( #55 ) ) ;
#119 = LINE ( 'NONE', #74, #205 ) ;
#120 = LINE ( 'NONE', #158, #178 ) ;
#121 = PERSON_AND_ORGANIZATION ( #148, #108 ) ;
#122 = EDGE_CURVE ( 'NONE', #182, #95, #89, .T. ) ;
#123 = DATE_AND_TIME ( #78, #167 ) ;
#124 = VERTEX_POINT ( 'NONE', #176 ) ;
#125 = DATE_TIME_ROLE ( 'classification_date' ) ;
#126 = SECURITY_CLASSIFICATION_LEVEL ( 'unclassified' ) ;
#127 = CALENDAR_DATE ( 2020, 19, 10 ) ;
#128 = CARTESIAN_POINT ( 'NONE',  ( 12.49999999999999645, -6.249999999999998224, -3.000000000000000000 ) ) ;
#129 = PERSON_AND_ORGANIZATION ( #148, #108 ) ;
#130 = ORIENTED_EDGE ( 'NONE', *, *, #1, .F. ) ;
#131 = UNCERTAINTY_MEASURE_WITH_UNIT (LENGTH_MEASURE( 1.000000000000000082E-05 ), #33, 'distance_accuracy_value', 'NONE');
#132 = VECTOR ( 'NONE', #143, 1000.000000000000000 ) ;
#133 = PERSON_AND_ORGANIZATION ( #148, #108 ) ;
#134 = ORIENTED_EDGE ( 'NONE', *, *, #1, .T. ) ;
#135 = CC_DESIGN_PERSON_AND_ORGANIZATION_ASSIGNMENT ( #129, #234, ( #184 ) ) ;
#136 = ADVANCED_BREP_SHAPE_REPRESENTATION ( 'Web Model 41021MX_15771', ( #219, #40 ), #23 ) ;
#137 = FACE_OUTER_BOUND ( 'NONE', #83, .T. ) ;
#138 = DIRECTION ( 'NONE',  ( 0.0000000000000000000, 0.0000000000000000000, -1.000000000000000000 ) ) ;
#139 = VECTOR ( 'NONE', #36, 1000.000000000000000 ) ;
#140 = DIRECTION ( 'NONE',  ( -1.387778780781445429E-16, 1.000000000000000000, 0.0000000000000000000 ) ) ;
#141 = LINE ( 'NONE', #68, #209 ) ;
#142 = CARTESIAN_POINT ( 'NONE',  ( -12.50000000000000355, -6.250000000000001776, 3.000000000000000000 ) ) ;
#143 = DIRECTION ( 'NONE',  ( -1.000000000000000000, -6.938893903907228378E-17, 0.0000000000000000000 ) ) ;
#144 = ORIENTED_EDGE ( 'NONE', *, *, #49, .T. ) ;
#145 = CARTESIAN_POINT ( 'NONE',  ( 12.49999999999999645, -6.249999999999998224, -3.000000000000000000 ) ) ;
#146 = AXIS2_PLACEMENT_3D ( 'NONE', #86, #9, #71 ) ;
#147 = ORIENTED_EDGE ( 'NONE', *, *, #212, .T. ) ;
#148 = PERSON ( 'UNSPECIFIED', 'UNSPECIFIED', 'UNSPECIFIED', ('UNSPECIFIED'), ('UNSPECIFIED'), ('UNSPECIFIED') ) ;
#149 = ORIENTED_EDGE ( 'NONE', *, *, #15, .T. ) ;
#150 = LINE ( 'NONE', #128, #139 ) ;
#151 = VERTEX_POINT ( 'NONE', #54 ) ;
#152 = CARTESIAN_POINT ( 'NONE',  ( 12.49999999999999645, -6.249999999999998224, 3.000000000000000000 ) ) ;
#153 = FACE_OUTER_BOUND ( 'NONE', #100, .T. ) ;
#154 = ORIENTED_EDGE ( 'NONE', *, *, #204, .F. ) ;
#155 = CC_DESIGN_PERSON_AND_ORGANIZATION_ASSIGNMENT ( #14, #220, ( #175 ) ) ;
#156 = VECTOR ( 'NONE', #105, 1000.000000000000000 ) ;
#157 = LINE ( 'NONE', #197, #67 ) ;
#158 = CARTESIAN_POINT ( 'NONE',  ( -12.50000000000000355, -6.250000000000001776, -3.000000000000000000 ) ) ;
#159 = APPLICATION_CONTEXT ( 'configuration controlled 3d designs of mechanical parts and assemblies' ) ;
#160 = DIRECTION ( 'NONE',  ( 0.0000000000000000000, -0.0000000000000000000, 1.000000000000000000 ) ) ;
#161 = LINE ( 'NONE', #232, #156 ) ;
#162 = DIRECTION ( 'NONE',  ( 0.0000000000000000000, 0.0000000000000000000, 1.000000000000000000 ) ) ;
#163 = PERSON_AND_ORGANIZATION_ROLE ( 'creator' ) ;
#164 = ORIENTED_EDGE ( 'NONE', *, *, #200, .T. ) ;
#165 = EDGE_CURVE ( 'NONE', #151, #182, #11, .T. ) ;
#166 = ADVANCED_FACE ( 'NONE', ( #153 ), #102, .F. ) ;
#167 = LOCAL_TIME ( 13, 15, 8.000000000000000000, #80 ) ;
#168 = ORIENTED_EDGE ( 'NONE', *, *, #15, .F. ) ;
#169 = COORDINATED_UNIVERSAL_TIME_OFFSET ( 5, 0, .BEHIND. ) ;
#170 = DIRECTION ( 'NONE',  ( -0.0000000000000000000, -0.0000000000000000000, -1.000000000000000000 ) ) ;
#171 = COORDINATED_UNIVERSAL_TIME_OFFSET ( 5, 0, .BEHIND. ) ;
#172 = VERTEX_POINT ( 'NONE', #195 ) ;
#173 = DIRECTION ( 'NONE',  ( 0.0000000000000000000, 1.000000000000000000, 0.0000000000000000000 ) ) ;
#174 = DIRECTION ( 'NONE',  ( -0.0000000000000000000, -0.0000000000000000000, -1.000000000000000000 ) ) ;
#175 = PRODUCT ( 'Web Model 41021MX_15771', 'Web Model 41021MX_15771', '', ( #16 ) ) ;
#176 = CARTESIAN_POINT ( 'NONE',  ( 12.49999999999999645, -6.249999999999998224, 3.000000000000000000 ) ) ;
#177 = APPROVAL_ROLE ( '' ) ;
#178 = VECTOR ( 'NONE', #52, 1000.000000000000000 ) ;
#179 = EDGE_CURVE ( 'NONE', #124, #214, #161, .T. ) ;
#180 = CARTESIAN_POINT ( 'NONE',  ( 12.49999999999999645, 6.250000000000000000, 3.000000000000000000 ) ) ;
#181 = COORDINATED_UNIVERSAL_TIME_OFFSET ( 5, 0, .BEHIND. ) ;
#182 = VERTEX_POINT ( 'NONE', #58 ) ;
#183 = SECURITY_CLASSIFICATION ( '', '', #126 ) ;
#184 = PRODUCT_DEFINITION_FORMATION_WITH_SPECIFIED_SOURCE ( 'ANY', '', #175, .NOT_KNOWN. ) ;
#185 = LINE ( 'NONE', #84, #63 ) ;
#186 = DATE_AND_TIME ( #127, #236 ) ;
#187 = ORIENTED_EDGE ( 'NONE', *, *, #101, .F. ) ;
#188 = ADVANCED_FACE ( 'NONE', ( #43 ), #90, .F. ) ;
#189 = ORIENTED_EDGE ( 'NONE', *, *, #179, .T. ) ;
#190 = DIRECTION ( 'NONE',  ( 1.000000000000000000, 1.387778780781445676E-16, -0.0000000000000000000 ) ) ;
#191 = DIRECTION ( 'NONE',  ( 0.0000000000000000000, -0.0000000000000000000, 1.000000000000000000 ) ) ;
#192 = LOCAL_TIME ( 13, 15, 8.000000000000000000, #10 ) ;
#193 = PLANE ( 'NONE',  #215 ) ;
#194 = ORIENTED_EDGE ( 'NONE', *, *, #210, .F. ) ;
#195 = CARTESIAN_POINT ( 'NONE',  ( -12.50000000000000355, -6.250000000000001776, -3.000000000000000000 ) ) ;
#196 = CC_DESIGN_DATE_AND_TIME_ASSIGNMENT ( #186, #125, ( #183 ) ) ;
#197 = CARTESIAN_POINT ( 'NONE',  ( -12.50000000000000355, -6.250000000000001776, 3.000000000000000000 ) ) ;
#198 = ORIENTED_EDGE ( 'NONE', *, *, #212, .F. ) ;
#199 = APPROVAL_ROLE ( '' ) ;
#200 = EDGE_CURVE ( 'NONE', #124, #151, #94, .T. ) ;
#201 = APPROVAL_STATUS ( 'not_yet_approved' ) ;
#202 = DATE_AND_TIME ( #28, #62 ) ;
#203 = DIRECTION ( 'NONE',  ( 1.000000000000000000, 0.0000000000000000000, -0.0000000000000000000 ) ) ;
#204 = EDGE_CURVE ( 'NONE', #214, #223, #150, .T. ) ;
#205 = VECTOR ( 'NONE', #235, 1000.000000000000000 ) ;
#206 = AXIS2_PLACEMENT_3D ( 'NONE', #211, #140, #73 ) ;
#207 = ORIENTED_EDGE ( 'NONE', *, *, #179, .F. ) ;
#208 = APPROVAL_DATE_TIME ( #50, #93 ) ;
#209 = VECTOR ( 'NONE', #190, 1000.000000000000000 ) ;
#210 = EDGE_CURVE ( 'NONE', #151, #223, #228, .T. ) ;
#211 = CARTESIAN_POINT ( 'NONE',  ( 12.49999999999999645, -6.249999999999998224, 3.000000000000000000 ) ) ;
#212 = EDGE_CURVE ( 'NONE', #223, #95, #119, .T. ) ;
#213 = VECTOR ( 'NONE', #12, 1000.000000000000000 ) ;
#214 = VERTEX_POINT ( 'NONE', #145 ) ;
#215 = AXIS2_PLACEMENT_3D ( 'NONE', #25, #191, #70 ) ;
#216 = APPLICATION_PROTOCOL_DEFINITION ( 'international standard', 'config_control_design', 1994, #159 ) ;
#217 = PERSON_AND_ORGANIZATION_ROLE ( 'creator' ) ;
#218 = CARTESIAN_POINT ( 'NONE',  ( 12.49999999999999645, 6.250000000000000000, -3.000000000000000000 ) ) ;
#219 = MANIFOLD_SOLID_BREP ( 'Boss-Extrude1', #5 ) ;
#220 = PERSON_AND_ORGANIZATION_ROLE ( 'design_owner' ) ;
#221 =( NAMED_UNIT ( * ) PLANE_ANGLE_UNIT ( ) SI_UNIT ( $, .RADIAN. ) );
#222 = APPROVAL_PERSON_ORGANIZATION ( #72, #65, #199 ) ;
#223 = VERTEX_POINT ( 'NONE', #218 ) ;
#224 = ORIENTED_EDGE ( 'NONE', *, *, #200, .F. ) ;
#225 = FACE_OUTER_BOUND ( 'NONE', #51, .T. ) ;
#226 = DIRECTION ( 'NONE',  ( 1.000000000000000000, 0.0000000000000000000, 0.0000000000000000000 ) ) ;
#227 = CARTESIAN_POINT ( 'NONE',  ( -12.50000000000000355, -6.250000000000001776, 3.000000000000000000 ) ) ;
#228 = LINE ( 'NONE', #180, #213 ) ;
#229 = CARTESIAN_POINT ( 'NONE',  ( 12.49999999999999645, -6.249999999999998224, 3.000000000000000000 ) ) ;
#230 = CC_DESIGN_PERSON_AND_ORGANIZATION_ASSIGNMENT ( #121, #92, ( #183 ) ) ;
#231 = DIRECTION ( 'NONE',  ( -0.0000000000000000000, -1.000000000000000000, -0.0000000000000000000 ) ) ;
#232 = CARTESIAN_POINT ( 'NONE',  ( 12.49999999999999645, -6.249999999999998224, 3.000000000000000000 ) ) ;
#233 = APPROVAL_STATUS ( 'not_yet_approved' ) ;
#234 = PERSON_AND_ORGANIZATION_ROLE ( 'design_supplier' ) ;
#235 = DIRECTION ( 'NONE',  ( -1.000000000000000000, -6.938893903907228378E-17, 0.0000000000000000000 ) ) ;
#236 = LOCAL_TIME ( 13, 15, 8.000000000000000000, #169 ) ;
#237 = ORIENTED_EDGE ( 'NONE', *, *, #122, .F. ) ;
ENDSEC;
END-ISO-10303-21;
