ISO-10303-21;
HEADER;
FILE_DESCRIPTION (( 'STEP AP203' ),
    '1' );
FILE_NAME ('Web Model 47007.STEP',
    '2017-02-01T19:11:11',
    ( '' ),
    ( '' ),
    'SwSTEP 2.0',
    'SolidWorks 2016',
    '' );
FILE_SCHEMA (( 'CONFIG_CONTROL_DESIGN' ));
ENDSEC;

DATA;
#1 = PRODUCT_DEFINITION_FORMATION_WITH_SPECIFIED_SOURCE ( 'ANY', '', #232, .NOT_KNOWN. ) ;
#2 = LINE ( 'NONE', #297, #202 ) ;
#3 = APPROVAL_PERSON_ORGANIZATION ( #70, #159, #112 ) ;
#4 = APPROVAL_DATE_TIME ( #77, #159 ) ;
#5 = CARTESIAN_POINT ( 'NONE',  ( 3.535533905932757300, -3.081487911019577400E-032, 2.500000000000000400 ) ) ;
#6 = ORIENTED_EDGE ( 'NONE', *, *, #287, .T. ) ;
#7 = DIRECTION ( 'NONE',  ( -0.0000000000000000000, -0.0000000000000000000, -1.000000000000000000 ) ) ;
#8 = ADVANCED_FACE ( 'NONE', ( #244 ), #87, .F. ) ;
#9 = LINE ( 'NONE', #148, #280 ) ;
#10 = CALENDAR_DATE ( 2017, 1, 2 ) ;
#11 = DIRECTION ( 'NONE',  ( -0.0000000000000000000, -0.0000000000000000000, -1.000000000000000000 ) ) ;
#12 = DIRECTION ( 'NONE',  ( -0.0000000000000000000, -0.0000000000000000000, -1.000000000000000000 ) ) ;
#13 = CLOSED_SHELL ( 'NONE', ( #140, #266, #35, #238, #8 ) ) ;
#14 = DIRECTION ( 'NONE',  ( -0.7071067811865513500, -0.7071067811865438000, 3.925231146709457600E-017 ) ) ;
#15 = DIRECTION ( 'NONE',  ( 1.000000000000000000, -6.123233995736764800E-017, -5.551115123125781500E-017 ) ) ;
#16 = APPROVAL ( #258, 'UNSPECIFIED' ) ;
#17 = APPLICATION_CONTEXT ( 'configuration controlled 3d designs of mechanical parts and assemblies' ) ;
#18 = LOCAL_TIME ( 14, 11, 11.00000000000000000, #225 ) ;
#19 = ORIENTED_EDGE ( 'NONE', *, *, #260, .F. ) ;
#20 = VECTOR ( 'NONE', #42, 1000.000000000000000 ) ;
#21 = CC_DESIGN_SECURITY_CLASSIFICATION ( #95, ( #1 ) ) ;
#22 = ORIENTED_EDGE ( 'NONE', *, *, #246, .F. ) ;
#23 = ORIENTED_EDGE ( 'NONE', *, *, #48, .F. ) ;
#24 = FACE_OUTER_BOUND ( 'NONE', #36, .T. ) ;
#25 = SHAPE_DEFINITION_REPRESENTATION ( #172, #211 ) ;
#26 = ORIENTED_EDGE ( 'NONE', *, *, #34, .F. ) ;
#27 = ORIENTED_EDGE ( 'NONE', *, *, #311, .F. ) ;
#28 = EDGE_CURVE ( 'NONE', #97, #162, #135, .T. ) ;
#29 = CARTESIAN_POINT ( 'NONE',  ( -3.535533905932757300, 4.329780281177489800E-016, -2.500000000000000400 ) ) ;
#30 = CC_DESIGN_APPROVAL ( #159, ( #1 ) ) ;
#31 = COORDINATED_UNIVERSAL_TIME_OFFSET ( 5, 0, .BEHIND. ) ;
#32 = EDGE_LOOP ( 'NONE', ( #206, #26, #120, #274 ) ) ;
#33 = DATE_AND_TIME ( #10, #18 ) ;
#34 = EDGE_CURVE ( 'NONE', #256, #47, #71, .T. ) ;
#35 = ADVANCED_FACE ( 'NONE', ( #234 ), #243, .F. ) ;
#36 = EDGE_LOOP ( 'NONE', ( #101, #307, #175 ) ) ;
#37 = DIRECTION ( 'NONE',  ( 0.7071067811865513500, 0.7071067811865438000, -3.925231146709457600E-017 ) ) ;
#38 = VECTOR ( 'NONE', #143, 1000.000000000000000 ) ;
#39 = CARTESIAN_POINT ( 'NONE',  ( -3.535533905932756400, 0.0000000000000000000, -2.500000000000000000 ) ) ;
#40 = CARTESIAN_POINT ( 'NONE',  ( -3.535533905932757300, 4.329780281177488900E-016, 2.500000000000000400 ) ) ;
#41 = CARTESIAN_POINT ( 'NONE',  ( -3.535533905932756400, 0.0000000000000000000, 2.500000000000000000 ) ) ;
#42 = DIRECTION ( 'NONE',  ( -0.7071067811865512400, 0.7071067811865439100, 0.0000000000000000000 ) ) ;
#43 = APPROVAL_DATE_TIME ( #181, #16 ) ;
#44 = CARTESIAN_POINT ( 'NONE',  ( 1.387778780781445700E-016, -3.081487911019577400E-032, 2.500000000000000400 ) ) ;
#45 = CARTESIAN_POINT ( 'NONE',  ( 3.535533905932756400, -4.329780281177489400E-016, 2.500000000000000000 ) ) ;
#46 = EDGE_CURVE ( 'NONE', #292, #146, #314, .T. ) ;
#47 = VERTEX_POINT ( 'NONE', #215 ) ;
#48 = EDGE_CURVE ( 'NONE', #256, #304, #235, .T. ) ;
#49 = DIRECTION ( 'NONE',  ( -5.551115123125781500E-017, 1.232595164407830700E-032, -1.000000000000000000 ) ) ;
#50 = EDGE_LOOP ( 'NONE', ( #204, #27, #299, #224 ) ) ;
#51 = CARTESIAN_POINT ( 'NONE',  ( 3.535533905932756400, -4.329780281177489400E-016, 2.500000000000000000 ) ) ;
#52 = DIRECTION ( 'NONE',  ( -0.7071067811865439100, -0.7071067811865512400, 0.0000000000000000000 ) ) ;
#53 = ORIENTED_EDGE ( 'NONE', *, *, #246, .T. ) ;
#54 = VECTOR ( 'NONE', #205, 999.9999999999998900 ) ;
#55 = DIRECTION ( 'NONE',  ( -1.000000000000000000, 0.0000000000000000000, 5.551115123125781500E-017 ) ) ;
#56 = DIRECTION ( 'NONE',  ( 0.0000000000000000000, 0.0000000000000000000, 1.000000000000000000 ) ) ;
#57 = DIRECTION ( 'NONE',  ( -1.000000000000000000, 0.0000000000000000000, 5.551115123125781500E-017 ) ) ;
#58 = CARTESIAN_POINT ( 'NONE',  ( -3.535533905932756400, 0.0000000000000000000, 2.500000000000000000 ) ) ;
#59 = DIRECTION ( 'NONE',  ( -1.000000000000000000, 6.123233995736764800E-017, 5.551115123125782100E-017 ) ) ;
#60 = VECTOR ( 'NONE', #265, 1000.000000000000000 ) ;
#61 = CARTESIAN_POINT ( 'NONE',  ( -3.535533905932757300, 4.329780281177488900E-016, 2.500000000000000400 ) ) ;
#62 = CARTESIAN_POINT ( 'NONE',  ( -7.798460537093701200E-017, -3.535533905932719100, 2.500000000000000400 ) ) ;
#63 = CARTESIAN_POINT ( 'NONE',  ( 3.535533905932757300, 3.081487911019577400E-032, -2.500000000000000400 ) ) ;
#64 = EDGE_CURVE ( 'NONE', #156, #97, #182, .T. ) ;
#65 = PERSON_AND_ORGANIZATION ( #284, #75 ) ;
#66 = VECTOR ( 'NONE', #12, 1000.000000000000000 ) ;
#67 = FACE_OUTER_BOUND ( 'NONE', #130, .T. ) ;
#68 = CALENDAR_DATE ( 2017, 1, 2 ) ;
#69 = LINE ( 'NONE', #61, #321 ) ;
#70 = PERSON_AND_ORGANIZATION ( #284, #75 ) ;
#71 = LINE ( 'NONE', #295, #66 ) ;
#72 = EDGE_CURVE ( 'NONE', #156, #114, #298, .T. ) ;
#73 = AXIS2_PLACEMENT_3D ( 'NONE', #51, #52, #305 ) ;
#74 = ORIENTED_EDGE ( 'NONE', *, *, #94, .F. ) ;
#75 = ORGANIZATION ( 'UNSPECIFIED', 'UNSPECIFIED', '' ) ;
#76 = DIRECTION ( 'NONE',  ( 0.7071067811865512400, 0.7071067811865439100, 0.0000000000000000000 ) ) ;
#77 = DATE_AND_TIME ( #241, #134 ) ;
#78 = EDGE_CURVE ( 'NONE', #162, #128, #2, .T. ) ;
#79 = VERTEX_POINT ( 'NONE', #89 ) ;
#80 = VERTEX_POINT ( 'NONE', #268 ) ;
#81 =( NAMED_UNIT ( * ) PLANE_ANGLE_UNIT ( ) SI_UNIT ( $, .RADIAN. ) );
#82 = CARTESIAN_POINT ( 'NONE',  ( 0.0000000000000000000, 0.0000000000000000000, -2.500000000000000000 ) ) ;
#83 = FACE_OUTER_BOUND ( 'NONE', #122, .T. ) ;
#84 = DATE_TIME_ROLE ( 'creation_date' ) ;
#85 = CARTESIAN_POINT ( 'NONE',  ( 3.535533905932757300, -3.081487911019577400E-032, 2.500000000000000400 ) ) ;
#86 = APPLICATION_CONTEXT ( 'configuration controlled 3d designs of mechanical parts and assemblies' ) ;
#87 = PLANE ( 'NONE',  #227 ) ;
#88 = DIRECTION ( 'NONE',  ( -1.000000000000000000, 6.123233995736766000E-017, 0.0000000000000000000 ) ) ;
#89 = CARTESIAN_POINT ( 'NONE',  ( -7.798460537093701200E-017, -3.535533905932719100, 2.500000000000000400 ) ) ;
#90 = DATE_AND_TIME ( #285, #263 ) ;
#91 = EDGE_LOOP ( 'NONE', ( #210, #136, #22, #6 ) ) ;
#92 = SECURITY_CLASSIFICATION_LEVEL ( 'unclassified' ) ;
#93 = ORIENTED_EDGE ( 'NONE', *, *, #48, .T. ) ;
#94 = EDGE_CURVE ( 'NONE', #47, #80, #317, .T. ) ;
#95 = SECURITY_CLASSIFICATION ( '', '', #92 ) ;
#96 = APPROVAL_DATE_TIME ( #90, #223 ) ;
#97 = VERTEX_POINT ( 'NONE', #63 ) ;
#98 = CALENDAR_DATE ( 2017, 1, 2 ) ;
#99 = DIRECTION ( 'NONE',  ( 1.000000000000000000, -6.123233995736766000E-017, 0.0000000000000000000 ) ) ;
#100 =( GEOMETRIC_REPRESENTATION_CONTEXT ( 3 ) GLOBAL_UNCERTAINTY_ASSIGNED_CONTEXT ( ( #108 ) ) GLOBAL_UNIT_ASSIGNED_CONTEXT ( ( #149, #81, #173 ) ) REPRESENTATION_CONTEXT ( 'NONE', 'WORKASPACE' ) );
#101 = ORIENTED_EDGE ( 'NONE', *, *, #300, .T. ) ;
#102 = MANIFOLD_SOLID_BREP ( '5x5 Right Angle Prism Master-1-solid1', #121 ) ;
#103 = VECTOR ( 'NONE', #196, 1000.000000000000000 ) ;
#104 = CARTESIAN_POINT ( 'NONE',  ( -3.535533905932756400, 0.0000000000000000000, -2.500000000000000000 ) ) ;
#105 = ORIENTED_EDGE ( 'NONE', *, *, #254, .F. ) ;
#106 = MANIFOLD_SOLID_BREP ( '5x5 Right Angle Prism Master-2-solid1', #13 ) ;
#107 = DIRECTION ( 'NONE',  ( 0.7071067811865439100, -0.7071067811865512400, 0.0000000000000000000 ) ) ;
#108 = UNCERTAINTY_MEASURE_WITH_UNIT (LENGTH_MEASURE( 1.000000000000000100E-005 ), #149, 'distance_accuracy_value', 'NONE');
#109 = PLANE ( 'NONE',  #255 ) ;
#110 = ORIENTED_EDGE ( 'NONE', *, *, #167, .F. ) ;
#111 = ADVANCED_FACE ( 'NONE', ( #67 ), #269, .F. ) ;
#112 = APPROVAL_ROLE ( '' ) ;
#113 = CARTESIAN_POINT ( 'NONE',  ( -7.798460537093701200E-017, -3.535533905932719100, 2.500000000000000400 ) ) ;
#114 = VERTEX_POINT ( 'NONE', #195 ) ;
#115 = LOCAL_TIME ( 14, 11, 11.00000000000000000, #282 ) ;
#116 = APPLICATION_PROTOCOL_DEFINITION ( 'international standard', 'config_control_design', 1994, #86 ) ;
#117 = DIRECTION ( 'NONE',  ( -0.7071067811865438000, 0.7071067811865513500, 3.925231146709417600E-017 ) ) ;
#118 = EDGE_CURVE ( 'NONE', #292, #256, #9, .T. ) ;
#119 = APPROVAL_STATUS ( 'not_yet_approved' ) ;
#120 = ORIENTED_EDGE ( 'NONE', *, *, #118, .F. ) ;
#121 = CLOSED_SHELL ( 'NONE', ( #138, #179, #276, #166, #111 ) ) ;
#122 = EDGE_LOOP ( 'NONE', ( #123, #308, #23, #157 ) ) ;
#123 = ORIENTED_EDGE ( 'NONE', *, *, #94, .T. ) ;
#124 = DESIGN_CONTEXT ( 'detailed design', #17, 'design' ) ;
#125 = CC_DESIGN_APPROVAL ( #16, ( #270 ) ) ;
#126 = AXIS2_PLACEMENT_3D ( 'NONE', #85, #310, #15 ) ;
#127 = VECTOR ( 'NONE', #49, 1000.000000000000000 ) ;
#128 = VERTEX_POINT ( 'NONE', #165 ) ;
#129 = DIRECTION ( 'NONE',  ( 1.000000000000000000, 0.0000000000000000000, -0.0000000000000000000 ) ) ;
#130 = EDGE_LOOP ( 'NONE', ( #74, #249, #110 ) ) ;
#131 = FACE_OUTER_BOUND ( 'NONE', #91, .T. ) ;
#132 = PERSON_AND_ORGANIZATION ( #284, #75 ) ;
#133 = ORIENTED_EDGE ( 'NONE', *, *, #185, .F. ) ;
#134 = LOCAL_TIME ( 14, 11, 11.00000000000000000, #191 ) ;
#135 = LINE ( 'NONE', #218, #273 ) ;
#136 = ORIENTED_EDGE ( 'NONE', *, *, #46, .F. ) ;
#137 = DIRECTION ( 'NONE',  ( 0.7071067811865438000, 0.7071067811865512400, -3.925231146709415700E-017 ) ) ;
#138 = ADVANCED_FACE ( 'NONE', ( #83 ), #200, .F. ) ;
#139 = CARTESIAN_POINT ( 'NONE',  ( -3.535533905932756400, 0.0000000000000000000, 2.500000000000000000 ) ) ;
#140 = ADVANCED_FACE ( 'NONE', ( #207 ), #226, .F. ) ;
#141 = CARTESIAN_POINT ( 'NONE',  ( 3.535533905932757300, -3.081487911019577400E-032, 2.500000000000000400 ) ) ;
#142 = PERSON_AND_ORGANIZATION ( #284, #75 ) ;
#143 = DIRECTION ( 'NONE',  ( -5.551115123125781500E-017, 1.232595164407830700E-032, -1.000000000000000000 ) ) ;
#144 = PRODUCT_RELATED_PRODUCT_CATEGORY ( 'detail', '', ( #232 ) ) ;
#145 = AXIS2_PLACEMENT_3D ( 'NONE', #213, #137, #251 ) ;
#146 = VERTEX_POINT ( 'NONE', #104 ) ;
#147 = DIRECTION ( 'NONE',  ( -5.551115123125781500E-017, 1.232595164407830700E-032, -1.000000000000000000 ) ) ;
#148 = CARTESIAN_POINT ( 'NONE',  ( -3.535533905932756400, 0.0000000000000000000, 2.500000000000000000 ) ) ;
#149 =( LENGTH_UNIT ( ) NAMED_UNIT ( * ) SI_UNIT ( .MILLI., .METRE. ) );
#150 = LINE ( 'NONE', #233, #54 ) ;
#151 = PERSON_AND_ORGANIZATION_ROLE ( 'design_supplier' ) ;
#152 = PERSON_AND_ORGANIZATION ( #284, #75 ) ;
#153 = ORIENTED_EDGE ( 'NONE', *, *, #311, .T. ) ;
#154 = ORIENTED_EDGE ( 'NONE', *, *, #78, .T. ) ;
#155 = CARTESIAN_POINT ( 'NONE',  ( 0.0000000000000000000, 0.0000000000000000000, 2.500000000000000000 ) ) ;
#156 = VERTEX_POINT ( 'NONE', #5 ) ;
#157 = ORIENTED_EDGE ( 'NONE', *, *, #34, .T. ) ;
#158 = CARTESIAN_POINT ( 'NONE',  ( 2.167624834490815300E-016, 3.535533905932719100, 2.500000000000000000 ) ) ;
#159 = APPROVAL ( #261, 'UNSPECIFIED' ) ;
#160 = AXIS2_PLACEMENT_3D ( 'NONE', #82, #259, #190 ) ;
#161 = VECTOR ( 'NONE', #37, 1000.000000000000000 ) ;
#162 = VERTEX_POINT ( 'NONE', #29 ) ;
#163 = COORDINATED_UNIVERSAL_TIME_OFFSET ( 5, 0, .BEHIND. ) ;
#164 = EDGE_LOOP ( 'NONE', ( #93, #53, #289 ) ) ;
#165 = CARTESIAN_POINT ( 'NONE',  ( -3.555403615272261700E-016, -3.535533905932719100, -2.500000000000000400 ) ) ;
#166 = ADVANCED_FACE ( 'NONE', ( #262 ), #281, .T. ) ;
#167 = EDGE_CURVE ( 'NONE', #80, #146, #150, .T. ) ;
#168 = ORIENTED_EDGE ( 'NONE', *, *, #78, .F. ) ;
#169 = DIRECTION ( 'NONE',  ( -0.7071067811865512400, -0.7071067811865439100, 0.0000000000000000000 ) ) ;
#170 = EDGE_LOOP ( 'NONE', ( #301, #272, #19, #216 ) ) ;
#171 = CARTESIAN_POINT ( 'NONE',  ( 2.167624834490815300E-016, 3.535533905932719100, 2.500000000000000000 ) ) ;
#172 = PRODUCT_DEFINITION_SHAPE ( 'NONE', 'NONE',  #270 ) ;
#173 =( NAMED_UNIT ( * ) SI_UNIT ( $, .STERADIAN. ) SOLID_ANGLE_UNIT ( ) );
#174 = CARTESIAN_POINT ( 'NONE',  ( 3.535533905932756400, -4.329780281177489400E-016, -2.500000000000000000 ) ) ;
#175 = ORIENTED_EDGE ( 'NONE', *, *, #72, .T. ) ;
#176 = DIRECTION ( 'NONE',  ( 0.7071067811865512400, -0.7071067811865439100, -3.925231146709458300E-017 ) ) ;
#177 = DATE_TIME_ROLE ( 'classification_date' ) ;
#178 = CC_DESIGN_PERSON_AND_ORGANIZATION_ASSIGNMENT ( #277, #212, ( #270 ) ) ;
#179 = ADVANCED_FACE ( 'NONE', ( #131 ), #278, .F. ) ;
#180 = AXIS2_PLACEMENT_3D ( 'NONE', #158, #107, #76 ) ;
#181 = DATE_AND_TIME ( #68, #115 ) ;
#182 = LINE ( 'NONE', #291, #38 ) ;
#183 = ORIENTED_EDGE ( 'NONE', *, *, #300, .F. ) ;
#184 = APPROVAL_PERSON_ORGANIZATION ( #209, #223, #315 ) ;
#185 = EDGE_CURVE ( 'NONE', #79, #128, #320, .T. ) ;
#186 = VECTOR ( 'NONE', #219, 1000.000000000000000 ) ;
#187 = CC_DESIGN_DATE_AND_TIME_ASSIGNMENT ( #33, #177, ( #95 ) ) ;
#188 = AXIS2_PLACEMENT_3D ( 'NONE', #309, #56, #267 ) ;
#189 = APPROVAL_ROLE ( '' ) ;
#190 = DIRECTION ( 'NONE',  ( 1.000000000000000000, 0.0000000000000000000, -0.0000000000000000000 ) ) ;
#191 = COORDINATED_UNIVERSAL_TIME_OFFSET ( 5, 0, .BEHIND. ) ;
#192 = DIRECTION ( 'NONE',  ( 6.123233995736766000E-017, 1.000000000000000000, -0.0000000000000000000 ) ) ;
#193 = CC_DESIGN_PERSON_AND_ORGANIZATION_ASSIGNMENT ( #65, #221, ( #95 ) ) ;
#194 = PLANE ( 'NONE',  #303 ) ;
#195 = CARTESIAN_POINT ( 'NONE',  ( -3.535533905932757300, 4.329780281177488900E-016, 2.500000000000000400 ) ) ;
#196 = DIRECTION ( 'NONE',  ( -0.7071067811865512400, 0.7071067811865439100, 0.0000000000000000000 ) ) ;
#197 = LINE ( 'NONE', #62, #186 ) ;
#198 = EDGE_LOOP ( 'NONE', ( #154, #133, #183, #153 ) ) ;
#199 = LINE ( 'NONE', #171, #283 ) ;
#200 = PLANE ( 'NONE',  #73 ) ;
#201 = AXIS2_PLACEMENT_3D ( 'NONE', #58, #192, #88 ) ;
#202 = VECTOR ( 'NONE', #176, 999.9999999999998900 ) ;
#203 = DATE_AND_TIME ( #98, #252 ) ;
#204 = ORIENTED_EDGE ( 'NONE', *, *, #28, .T. ) ;
#205 = DIRECTION ( 'NONE',  ( -0.7071067811865512400, -0.7071067811865439100, 0.0000000000000000000 ) ) ;
#206 = ORIENTED_EDGE ( 'NONE', *, *, #279, .T. ) ;
#207 = FACE_OUTER_BOUND ( 'NONE', #198, .T. ) ;
#208 = VECTOR ( 'NONE', #11, 1000.000000000000000 ) ;
#209 = PERSON_AND_ORGANIZATION ( #284, #75 ) ;
#210 = ORIENTED_EDGE ( 'NONE', *, *, #167, .T. ) ;
#211 = ADVANCED_BREP_SHAPE_REPRESENTATION ( 'Web Model 47007', ( #102, #106, #188 ), #100 ) ;
#212 = PERSON_AND_ORGANIZATION_ROLE ( 'creator' ) ;
#213 = CARTESIAN_POINT ( 'NONE',  ( -3.535533905932757300, 4.329780281177488900E-016, 2.500000000000000400 ) ) ;
#214 = DIRECTION ( 'NONE',  ( 1.000000000000000000, -6.123233995736766000E-017, 0.0000000000000000000 ) ) ;
#215 = CARTESIAN_POINT ( 'NONE',  ( 3.535533905932756400, -4.329780281177489400E-016, -2.500000000000000000 ) ) ;
#216 = ORIENTED_EDGE ( 'NONE', *, *, #185, .T. ) ;
#217 = DIRECTION ( 'NONE',  ( 5.551115123125781500E-017, -1.232595164407830700E-032, 1.000000000000000000 ) ) ;
#218 = CARTESIAN_POINT ( 'NONE',  ( 3.535533905932757300, 3.081487911019577400E-032, -2.500000000000000400 ) ) ;
#219 = DIRECTION ( 'NONE',  ( 0.7071067811865513500, 0.7071067811865438000, -3.925231146709457600E-017 ) ) ;
#220 = EDGE_LOOP ( 'NONE', ( #168, #240, #105 ) ) ;
#221 = PERSON_AND_ORGANIZATION_ROLE ( 'classification_officer' ) ;
#222 = LINE ( 'NONE', #40, #231 ) ;
#223 = APPROVAL ( #119, 'UNSPECIFIED' ) ;
#224 = ORIENTED_EDGE ( 'NONE', *, *, #64, .T. ) ;
#225 = COORDINATED_UNIVERSAL_TIME_OFFSET ( 5, 0, .BEHIND. ) ;
#226 = PLANE ( 'NONE',  #145 ) ;
#227 = AXIS2_PLACEMENT_3D ( 'NONE', #239, #293, #57 ) ;
#228 = DIRECTION ( 'NONE',  ( 0.0000000000000000000, 0.0000000000000000000, 1.000000000000000000 ) ) ;
#229 = CC_DESIGN_PERSON_AND_ORGANIZATION_ASSIGNMENT ( #142, #294, ( #232 ) ) ;
#230 = PERSON_AND_ORGANIZATION ( #284, #75 ) ;
#231 = VECTOR ( 'NONE', #290, 999.9999999999998900 ) ;
#232 = PRODUCT ( 'Web Model 47007', 'Web Model 47007', '', ( #236 ) ) ;
#233 = CARTESIAN_POINT ( 'NONE',  ( 2.167624834490815300E-016, 3.535533905932719100, -2.500000000000000000 ) ) ;
#234 = FACE_OUTER_BOUND ( 'NONE', #50, .T. ) ;
#235 = LINE ( 'NONE', #45, #103 ) ;
#236 = MECHANICAL_CONTEXT ( 'NONE', #86, 'mechanical' ) ;
#237 = CARTESIAN_POINT ( 'NONE',  ( -3.555403615272261700E-016, -3.535533905932719100, -2.500000000000000400 ) ) ;
#238 = ADVANCED_FACE ( 'NONE', ( #24 ), #194, .T. ) ;
#239 = CARTESIAN_POINT ( 'NONE',  ( -1.387778780781445700E-016, 3.081487911019577400E-032, -2.500000000000000400 ) ) ;
#240 = ORIENTED_EDGE ( 'NONE', *, *, #28, .F. ) ;
#241 = CALENDAR_DATE ( 2017, 1, 2 ) ;
#242 = PLANE ( 'NONE',  #201 ) ;
#243 = PLANE ( 'NONE',  #126 ) ;
#244 = FACE_OUTER_BOUND ( 'NONE', #220, .T. ) ;
#245 = VECTOR ( 'NONE', #7, 1000.000000000000000 ) ;
#246 = EDGE_CURVE ( 'NONE', #304, #292, #199, .T. ) ;
#247 = LINE ( 'NONE', #39, #318 ) ;
#248 = FACE_OUTER_BOUND ( 'NONE', #170, .T. ) ;
#249 = ORIENTED_EDGE ( 'NONE', *, *, #279, .F. ) ;
#250 = CC_DESIGN_PERSON_AND_ORGANIZATION_ASSIGNMENT ( #230, #271, ( #1 ) ) ;
#251 = DIRECTION ( 'NONE',  ( -0.7071067811865512400, 0.7071067811865438000, 3.925231146709458300E-017 ) ) ;
#252 = LOCAL_TIME ( 14, 11, 11.00000000000000000, #31 ) ;
#253 = AXIS2_PLACEMENT_3D ( 'NONE', #155, #228, #129 ) ;
#254 = EDGE_CURVE ( 'NONE', #128, #97, #296, .T. ) ;
#255 = AXIS2_PLACEMENT_3D ( 'NONE', #113, #117, #14 ) ;
#256 = VERTEX_POINT ( 'NONE', #312 ) ;
#257 = FACE_OUTER_BOUND ( 'NONE', #32, .T. ) ;
#258 = APPROVAL_STATUS ( 'not_yet_approved' ) ;
#259 = DIRECTION ( 'NONE',  ( 0.0000000000000000000, 0.0000000000000000000, 1.000000000000000000 ) ) ;
#260 = EDGE_CURVE ( 'NONE', #79, #156, #197, .T. ) ;
#261 = APPROVAL_STATUS ( 'not_yet_approved' ) ;
#262 = FACE_OUTER_BOUND ( 'NONE', #164, .T. ) ;
#263 = LOCAL_TIME ( 14, 11, 11.00000000000000000, #163 ) ;
#264 = CARTESIAN_POINT ( 'NONE',  ( 2.167624834490815300E-016, 3.535533905932719100, 2.500000000000000000 ) ) ;
#265 = DIRECTION ( 'NONE',  ( -1.000000000000000000, 6.123233995736764800E-017, 5.551115123125782100E-017 ) ) ;
#266 = ADVANCED_FACE ( 'NONE', ( #248 ), #109, .F. ) ;
#267 = DIRECTION ( 'NONE',  ( 1.000000000000000000, 0.0000000000000000000, 0.0000000000000000000 ) ) ;
#268 = CARTESIAN_POINT ( 'NONE',  ( 2.167624834490815300E-016, 3.535533905932719100, -2.500000000000000000 ) ) ;
#269 = PLANE ( 'NONE',  #160 ) ;
#270 = PRODUCT_DEFINITION ( 'UNKNOWN', '', #1, #124 ) ;
#271 = PERSON_AND_ORGANIZATION_ROLE ( 'creator' ) ;
#272 = ORIENTED_EDGE ( 'NONE', *, *, #64, .F. ) ;
#273 = VECTOR ( 'NONE', #59, 1000.000000000000000 ) ;
#274 = ORIENTED_EDGE ( 'NONE', *, *, #46, .T. ) ;
#275 = CC_DESIGN_APPROVAL ( #223, ( #95 ) ) ;
#276 = ADVANCED_FACE ( 'NONE', ( #257 ), #242, .F. ) ;
#277 = PERSON_AND_ORGANIZATION ( #284, #75 ) ;
#278 = PLANE ( 'NONE',  #180 ) ;
#279 = EDGE_CURVE ( 'NONE', #146, #47, #247, .T. ) ;
#280 = VECTOR ( 'NONE', #99, 1000.000000000000000 ) ;
#281 = PLANE ( 'NONE',  #253 ) ;
#282 = COORDINATED_UNIVERSAL_TIME_OFFSET ( 5, 0, .BEHIND. ) ;
#283 = VECTOR ( 'NONE', #169, 999.9999999999998900 ) ;
#284 = PERSON ( 'UNSPECIFIED', 'UNSPECIFIED', 'UNSPECIFIED', ('UNSPECIFIED'), ('UNSPECIFIED'), ('UNSPECIFIED') ) ;
#285 = CALENDAR_DATE ( 2017, 1, 2 ) ;
#286 = CARTESIAN_POINT ( 'NONE',  ( -7.798460537093701200E-017, -3.535533905932719100, 2.500000000000000400 ) ) ;
#287 = EDGE_CURVE ( 'NONE', #304, #80, #316, .T. ) ;
#288 = CARTESIAN_POINT ( 'NONE',  ( 2.167624834490815300E-016, 3.535533905932719100, 2.500000000000000000 ) ) ;
#289 = ORIENTED_EDGE ( 'NONE', *, *, #118, .T. ) ;
#290 = DIRECTION ( 'NONE',  ( 0.7071067811865512400, -0.7071067811865439100, -3.925231146709458300E-017 ) ) ;
#291 = CARTESIAN_POINT ( 'NONE',  ( 3.535533905932757300, -3.081487911019577400E-032, 2.500000000000000400 ) ) ;
#292 = VERTEX_POINT ( 'NONE', #41 ) ;
#293 = DIRECTION ( 'NONE',  ( 5.551115123125781500E-017, -1.232595164407830700E-032, 1.000000000000000000 ) ) ;
#294 = PERSON_AND_ORGANIZATION_ROLE ( 'design_owner' ) ;
#295 = CARTESIAN_POINT ( 'NONE',  ( 3.535533905932756400, -4.329780281177489400E-016, 2.500000000000000000 ) ) ;
#296 = LINE ( 'NONE', #237, #161 ) ;
#297 = CARTESIAN_POINT ( 'NONE',  ( -3.535533905932757300, 4.329780281177489800E-016, -2.500000000000000400 ) ) ;
#298 = LINE ( 'NONE', #141, #60 ) ;
#299 = ORIENTED_EDGE ( 'NONE', *, *, #72, .F. ) ;
#300 = EDGE_CURVE ( 'NONE', #114, #79, #222, .T. ) ;
#301 = ORIENTED_EDGE ( 'NONE', *, *, #254, .T. ) ;
#302 = CC_DESIGN_PERSON_AND_ORGANIZATION_ASSIGNMENT ( #132, #151, ( #1 ) ) ;
#303 = AXIS2_PLACEMENT_3D ( 'NONE', #44, #217, #55 ) ;
#304 = VERTEX_POINT ( 'NONE', #288 ) ;
#305 = DIRECTION ( 'NONE',  ( 0.7071067811865512400, -0.7071067811865439100, 0.0000000000000000000 ) ) ;
#306 = APPROVAL_PERSON_ORGANIZATION ( #152, #16, #189 ) ;
#307 = ORIENTED_EDGE ( 'NONE', *, *, #260, .T. ) ;
#308 = ORIENTED_EDGE ( 'NONE', *, *, #287, .F. ) ;
#309 = CARTESIAN_POINT ( 'NONE',  ( 0.0000000000000000000, 0.0000000000000000000, 0.0000000000000000000 ) ) ;
#310 = DIRECTION ( 'NONE',  ( -6.123233995736764800E-017, -1.000000000000000000, -2.763898138421928500E-033 ) ) ;
#311 = EDGE_CURVE ( 'NONE', #114, #162, #69, .T. ) ;
#312 = CARTESIAN_POINT ( 'NONE',  ( 3.535533905932756400, -4.329780281177489400E-016, 2.500000000000000000 ) ) ;
#313 = APPLICATION_PROTOCOL_DEFINITION ( 'international standard', 'config_control_design', 1994, #17 ) ;
#314 = LINE ( 'NONE', #139, #245 ) ;
#315 = APPROVAL_ROLE ( '' ) ;
#316 = LINE ( 'NONE', #264, #208 ) ;
#317 = LINE ( 'NONE', #174, #20 ) ;
#318 = VECTOR ( 'NONE', #214, 1000.000000000000000 ) ;
#319 = CC_DESIGN_DATE_AND_TIME_ASSIGNMENT ( #203, #84, ( #270 ) ) ;
#320 = LINE ( 'NONE', #286, #127 ) ;
#321 = VECTOR ( 'NONE', #147, 1000.000000000000000 ) ;
ENDSEC;
END-ISO-10303-21;
