ISO-10303-21;
HEADER;
FILE_DESCRIPTION (( 'STEP AP203' ),
    '1' );
FILE_NAME ('Web Model 68522.STEP',
    '2017-02-01T13:27:09',
    ( '' ),
    ( '' ),
    'SwSTEP 2.0',
    'SolidWorks 2016',
    '' );
FILE_SCHEMA (( 'CONFIG_CONTROL_DESIGN' ));
ENDSEC;

DATA;
#1 = CIRCLE ( 'NONE', #41, 6.250000000000000000 ) ;
#2 = CC_DESIGN_DATE_AND_TIME_ASSIGNMENT ( #172, #32, ( #11 ) ) ;
#3 = PRODUCT ( 'Web Model 68522', 'Web Model 68522', '', ( #157 ) ) ;
#4 = ORIENTED_EDGE ( 'NONE', *, *, #106, .T. ) ;
#5 = DIRECTION ( 'NONE',  ( 0.0000000000000000000, 0.0000000000000000000, 1.000000000000000000 ) ) ;
#6 = ORGANIZATION ( 'UNSPECIFIED', 'UNSPECIFIED', '' ) ;
#7 = DIRECTION ( 'NONE',  ( 1.000000000000000000, 0.0000000000000000000, 0.0000000000000000000 ) ) ;
#8 = PERSON_AND_ORGANIZATION_ROLE ( 'design_supplier' ) ;
#9 =( NAMED_UNIT ( * ) PLANE_ANGLE_UNIT ( ) SI_UNIT ( $, .RADIAN. ) );
#10 = PERSON_AND_ORGANIZATION ( #14, #6 ) ;
#11 = PRODUCT_DEFINITION ( 'UNKNOWN', '', #161, #109 ) ;
#12 = ORIENTED_EDGE ( 'NONE', *, *, #56, .T. ) ;
#13 = CALENDAR_DATE ( 2017, 1, 2 ) ;
#14 = PERSON ( 'UNSPECIFIED', 'UNSPECIFIED', 'UNSPECIFIED', ('UNSPECIFIED'), ('UNSPECIFIED'), ('UNSPECIFIED') ) ;
#15 = APPROVAL_STATUS ( 'not_yet_approved' ) ;
#16 = ORIENTED_EDGE ( 'NONE', *, *, #88, .F. ) ;
#17 = MANIFOLD_SOLID_BREP ( 'Extrude1', #19 ) ;
#18 = APPLICATION_CONTEXT ( 'configuration controlled 3d designs of mechanical parts and assemblies' ) ;
#19 = CLOSED_SHELL ( 'NONE', ( #36, #25, #23, #37 ) ) ;
#20 = APPROVAL_PERSON_ORGANIZATION ( #134, #51, #130 ) ;
#21 = EDGE_LOOP ( 'NONE', ( #97, #12, #155, #38 ) ) ;
#22 = AXIS2_PLACEMENT_3D ( 'NONE', #151, #167, #85 ) ;
#23 = ADVANCED_FACE ( 'NONE', ( #81 ), #124, .T. ) ;
#24 = VECTOR ( 'NONE', #27, 1000.000000000000000 ) ;
#25 = ADVANCED_FACE ( 'NONE', ( #84 ), #138, .T. ) ;
#26 = CALENDAR_DATE ( 2017, 1, 2 ) ;
#27 = DIRECTION ( 'NONE',  ( -0.0000000000000000000, -1.000000000000000000, -0.0000000000000000000 ) ) ;
#28 = CC_DESIGN_APPROVAL ( #51, ( #161 ) ) ;
#29 = EDGE_CURVE ( 'NONE', #122, #53, #74, .T. ) ;
#30 = PRODUCT_DEFINITION_SHAPE ( 'NONE', 'NONE',  #11 ) ;
#31 = CARTESIAN_POINT ( 'NONE',  ( 7.654042494670957600E-016, 0.0000000000000000000, 6.250000000000000000 ) ) ;
#32 = DATE_TIME_ROLE ( 'creation_date' ) ;
#33 = CC_DESIGN_APPROVAL ( #169, ( #11 ) ) ;
#34 = LOCAL_TIME ( 8, 27, 9.000000000000000000, #140 ) ;
#35 = COORDINATED_UNIVERSAL_TIME_OFFSET ( 5, 0, .BEHIND. ) ;
#36 = ADVANCED_FACE ( 'NONE', ( #108 ), #132, .T. ) ;
#37 = ADVANCED_FACE ( 'NONE', ( #54 ), #136, .F. ) ;
#38 = ORIENTED_EDGE ( 'NONE', *, *, #77, .F. ) ;
#39 = CARTESIAN_POINT ( 'NONE',  ( 0.0000000000000000000, 2.000000000000000000, 0.0000000000000000000 ) ) ;
#40 = APPROVAL_DATE_TIME ( #116, #51 ) ;
#41 = AXIS2_PLACEMENT_3D ( 'NONE', #47, #58, #5 ) ;
#42 = LOCAL_TIME ( 8, 27, 9.000000000000000000, #66 ) ;
#43 = DIRECTION ( 'NONE',  ( 0.0000000000000000000, 1.000000000000000000, 0.0000000000000000000 ) ) ;
#44 = DIRECTION ( 'NONE',  ( 0.0000000000000000000, -0.0000000000000000000, 1.000000000000000000 ) ) ;
#45 = CC_DESIGN_PERSON_AND_ORGANIZATION_ASSIGNMENT ( #92, #117, ( #11 ) ) ;
#46 = CARTESIAN_POINT ( 'NONE',  ( 0.0000000000000000000, 2.000000000000000000, 0.0000000000000000000 ) ) ;
#47 = CARTESIAN_POINT ( 'NONE',  ( 0.0000000000000000000, 2.000000000000000000, 0.0000000000000000000 ) ) ;
#48 = AXIS2_PLACEMENT_3D ( 'NONE', #75, #141, #7 ) ;
#49 = ORIENTED_EDGE ( 'NONE', *, *, #88, .T. ) ;
#50 = APPROVAL_DATE_TIME ( #82, #105 ) ;
#51 = APPROVAL ( #59, 'UNSPECIFIED' ) ;
#52 = ORIENTED_EDGE ( 'NONE', *, *, #106, .F. ) ;
#53 = VERTEX_POINT ( 'NONE', #164 ) ;
#54 = FACE_OUTER_BOUND ( 'NONE', #118, .T. ) ;
#55 = DIRECTION ( 'NONE',  ( -0.0000000000000000000, -1.000000000000000000, -0.0000000000000000000 ) ) ;
#56 = EDGE_CURVE ( 'NONE', #95, #122, #114, .T. ) ;
#57 = DIRECTION ( 'NONE',  ( 0.0000000000000000000, 1.000000000000000000, 0.0000000000000000000 ) ) ;
#58 = DIRECTION ( 'NONE',  ( 0.0000000000000000000, 1.000000000000000000, 0.0000000000000000000 ) ) ;
#59 = APPROVAL_STATUS ( 'not_yet_approved' ) ;
#60 = APPLICATION_PROTOCOL_DEFINITION ( 'international standard', 'config_control_design', 1994, #170 ) ;
#61 = SECURITY_CLASSIFICATION ( '', '', #139 ) ;
#62 = LINE ( 'NONE', #101, #65 ) ;
#63 = APPROVAL_PERSON_ORGANIZATION ( #86, #105, #154 ) ;
#64 = PERSON_AND_ORGANIZATION ( #14, #6 ) ;
#65 = VECTOR ( 'NONE', #175, 1000.000000000000000 ) ;
#66 = COORDINATED_UNIVERSAL_TIME_OFFSET ( 5, 0, .BEHIND. ) ;
#67 = UNCERTAINTY_MEASURE_WITH_UNIT (LENGTH_MEASURE( 1.000000000000000100E-005 ), #93, 'distance_accuracy_value', 'NONE');
#68 = ORIENTED_EDGE ( 'NONE', *, *, #77, .T. ) ;
#69 = APPROVAL_DATE_TIME ( #96, #169 ) ;
#70 = DIRECTION ( 'NONE',  ( 0.0000000000000000000, 0.0000000000000000000, -1.000000000000000000 ) ) ;
#71 = CARTESIAN_POINT ( 'NONE',  ( 0.0000000000000000000, 0.0000000000000000000, 0.0000000000000000000 ) ) ;
#72 = AXIS2_PLACEMENT_3D ( 'NONE', #71, #111, #135 ) ;
#73 = CARTESIAN_POINT ( 'NONE',  ( 0.0000000000000000000, 2.000000000000000000, 0.0000000000000000000 ) ) ;
#74 = CIRCLE ( 'NONE', #72, 6.250000000000000000 ) ;
#75 = CARTESIAN_POINT ( 'NONE',  ( 0.0000000000000000000, 0.0000000000000000000, 0.0000000000000000000 ) ) ;
#76 =( NAMED_UNIT ( * ) SI_UNIT ( $, .STERADIAN. ) SOLID_ANGLE_UNIT ( ) );
#77 = EDGE_CURVE ( 'NONE', #99, #53, #62, .T. ) ;
#78 = DIRECTION ( 'NONE',  ( 0.0000000000000000000, 0.0000000000000000000, 1.000000000000000000 ) ) ;
#79 = PERSON_AND_ORGANIZATION ( #14, #6 ) ;
#80 = PERSON_AND_ORGANIZATION_ROLE ( 'creator' ) ;
#81 = FACE_OUTER_BOUND ( 'NONE', #127, .T. ) ;
#82 = DATE_AND_TIME ( #150, #42 ) ;
#83 = AXIS2_PLACEMENT_3D ( 'NONE', #90, #57, #78 ) ;
#84 = FACE_OUTER_BOUND ( 'NONE', #110, .T. ) ;
#85 = DIRECTION ( 'NONE',  ( 0.0000000000000000000, -0.0000000000000000000, 1.000000000000000000 ) ) ;
#86 = PERSON_AND_ORGANIZATION ( #14, #6 ) ;
#87 = PERSON_AND_ORGANIZATION_ROLE ( 'classification_officer' ) ;
#88 = EDGE_CURVE ( 'NONE', #99, #95, #174, .T. ) ;
#89 = DIRECTION ( 'NONE',  ( 0.0000000000000000000, 1.000000000000000000, 0.0000000000000000000 ) ) ;
#90 = CARTESIAN_POINT ( 'NONE',  ( 0.0000000000000000000, 0.0000000000000000000, 0.0000000000000000000 ) ) ;
#91 = APPLICATION_PROTOCOL_DEFINITION ( 'international standard', 'config_control_design', 1994, #18 ) ;
#92 = PERSON_AND_ORGANIZATION ( #14, #6 ) ;
#93 =( LENGTH_UNIT ( ) NAMED_UNIT ( * ) SI_UNIT ( .MILLI., .METRE. ) );
#94 = CALENDAR_DATE ( 2017, 1, 2 ) ;
#95 = VERTEX_POINT ( 'NONE', #142 ) ;
#96 = DATE_AND_TIME ( #112, #34 ) ;
#97 = ORIENTED_EDGE ( 'NONE', *, *, #162, .F. ) ;
#98 = PERSON_AND_ORGANIZATION ( #14, #6 ) ;
#99 = VERTEX_POINT ( 'NONE', #128 ) ;
#100 = CC_DESIGN_PERSON_AND_ORGANIZATION_ASSIGNMENT ( #79, #87, ( #61 ) ) ;
#101 = CARTESIAN_POINT ( 'NONE',  ( 0.0000000000000000000, 2.000000000000000000, -6.250000000000000000 ) ) ;
#102 = APPROVAL_STATUS ( 'not_yet_approved' ) ;
#103 = APPROVAL_ROLE ( '' ) ;
#104 = DATE_TIME_ROLE ( 'classification_date' ) ;
#105 = APPROVAL ( #15, 'UNSPECIFIED' ) ;
#106 = EDGE_CURVE ( 'NONE', #53, #122, #147, .T. ) ;
#107 = APPROVAL_PERSON_ORGANIZATION ( #98, #169, #103 ) ;
#108 = FACE_OUTER_BOUND ( 'NONE', #21, .T. ) ;
#109 = DESIGN_CONTEXT ( 'detailed design', #18, 'design' ) ;
#110 = EDGE_LOOP ( 'NONE', ( #133, #16, #68, #4 ) ) ;
#111 = DIRECTION ( 'NONE',  ( 0.0000000000000000000, 1.000000000000000000, 0.0000000000000000000 ) ) ;
#112 = CALENDAR_DATE ( 2017, 1, 2 ) ;
#113 = AXIS2_PLACEMENT_3D ( 'NONE', #137, #55, #152 ) ;
#114 = LINE ( 'NONE', #168, #24 ) ;
#115 = DIRECTION ( 'NONE',  ( 0.0000000000000000000, 0.0000000000000000000, 1.000000000000000000 ) ) ;
#116 = DATE_AND_TIME ( #13, #163 ) ;
#117 = PERSON_AND_ORGANIZATION_ROLE ( 'creator' ) ;
#118 = EDGE_LOOP ( 'NONE', ( #52, #144 ) ) ;
#119 = CC_DESIGN_APPROVAL ( #105, ( #61 ) ) ;
#120 = LOCAL_TIME ( 8, 27, 9.000000000000000000, #173 ) ;
#121 = AXIS2_PLACEMENT_3D ( 'NONE', #39, #148, #70 ) ;
#122 = VERTEX_POINT ( 'NONE', #31 ) ;
#123 = SHAPE_DEFINITION_REPRESENTATION ( #30, #165 ) ;
#124 = PLANE ( 'NONE',  #131 ) ;
#125 = CC_DESIGN_DATE_AND_TIME_ASSIGNMENT ( #159, #104, ( #61 ) ) ;
#126 = LOCAL_TIME ( 8, 27, 9.000000000000000000, #35 ) ;
#127 = EDGE_LOOP ( 'NONE', ( #49, #160 ) ) ;
#128 = CARTESIAN_POINT ( 'NONE',  ( 0.0000000000000000000, 2.000000000000000000, -6.250000000000000000 ) ) ;
#129 = CC_DESIGN_PERSON_AND_ORGANIZATION_ASSIGNMENT ( #64, #171, ( #3 ) ) ;
#130 = APPROVAL_ROLE ( '' ) ;
#131 = AXIS2_PLACEMENT_3D ( 'NONE', #73, #43, #44 ) ;
#132 = CYLINDRICAL_SURFACE ( 'NONE', #121, 6.250000000000000000 ) ;
#133 = ORIENTED_EDGE ( 'NONE', *, *, #56, .F. ) ;
#134 = PERSON_AND_ORGANIZATION ( #14, #6 ) ;
#135 = DIRECTION ( 'NONE',  ( 0.0000000000000000000, 0.0000000000000000000, 1.000000000000000000 ) ) ;
#136 = PLANE ( 'NONE',  #22 ) ;
#137 = CARTESIAN_POINT ( 'NONE',  ( 0.0000000000000000000, 2.000000000000000000, 0.0000000000000000000 ) ) ;
#138 = CYLINDRICAL_SURFACE ( 'NONE', #113, 6.250000000000000000 ) ;
#139 = SECURITY_CLASSIFICATION_LEVEL ( 'unclassified' ) ;
#140 = COORDINATED_UNIVERSAL_TIME_OFFSET ( 5, 0, .BEHIND. ) ;
#141 = DIRECTION ( 'NONE',  ( 0.0000000000000000000, 0.0000000000000000000, 1.000000000000000000 ) ) ;
#142 = CARTESIAN_POINT ( 'NONE',  ( 7.654042494670957600E-016, 2.000000000000000000, 6.250000000000000000 ) ) ;
#143 = CC_DESIGN_SECURITY_CLASSIFICATION ( #61, ( #161 ) ) ;
#144 = ORIENTED_EDGE ( 'NONE', *, *, #29, .F. ) ;
#145 = CC_DESIGN_PERSON_AND_ORGANIZATION_ASSIGNMENT ( #10, #80, ( #161 ) ) ;
#146 = PERSON_AND_ORGANIZATION ( #14, #6 ) ;
#147 = CIRCLE ( 'NONE', #83, 6.250000000000000000 ) ;
#148 = DIRECTION ( 'NONE',  ( -0.0000000000000000000, -1.000000000000000000, -0.0000000000000000000 ) ) ;
#149 = COORDINATED_UNIVERSAL_TIME_OFFSET ( 5, 0, .BEHIND. ) ;
#150 = CALENDAR_DATE ( 2017, 1, 2 ) ;
#151 = CARTESIAN_POINT ( 'NONE',  ( 0.0000000000000000000, 0.0000000000000000000, 0.0000000000000000000 ) ) ;
#152 = DIRECTION ( 'NONE',  ( 0.0000000000000000000, 0.0000000000000000000, -1.000000000000000000 ) ) ;
#153 = PRODUCT_RELATED_PRODUCT_CATEGORY ( 'detail', '', ( #3 ) ) ;
#154 = APPROVAL_ROLE ( '' ) ;
#155 = ORIENTED_EDGE ( 'NONE', *, *, #29, .T. ) ;
#156 =( GEOMETRIC_REPRESENTATION_CONTEXT ( 3 ) GLOBAL_UNCERTAINTY_ASSIGNED_CONTEXT ( ( #67 ) ) GLOBAL_UNIT_ASSIGNED_CONTEXT ( ( #93, #9, #76 ) ) REPRESENTATION_CONTEXT ( 'NONE', 'WORKASPACE' ) );
#157 = MECHANICAL_CONTEXT ( 'NONE', #170, 'mechanical' ) ;
#158 = AXIS2_PLACEMENT_3D ( 'NONE', #46, #89, #115 ) ;
#159 = DATE_AND_TIME ( #94, #126 ) ;
#160 = ORIENTED_EDGE ( 'NONE', *, *, #162, .T. ) ;
#161 = PRODUCT_DEFINITION_FORMATION_WITH_SPECIFIED_SOURCE ( 'ANY', '', #3, .NOT_KNOWN. ) ;
#162 = EDGE_CURVE ( 'NONE', #95, #99, #1, .T. ) ;
#163 = LOCAL_TIME ( 8, 27, 9.000000000000000000, #149 ) ;
#164 = CARTESIAN_POINT ( 'NONE',  ( 0.0000000000000000000, 0.0000000000000000000, -6.250000000000000000 ) ) ;
#165 = ADVANCED_BREP_SHAPE_REPRESENTATION ( 'Web Model 68522', ( #17, #48 ), #156 ) ;
#166 = CC_DESIGN_PERSON_AND_ORGANIZATION_ASSIGNMENT ( #146, #8, ( #161 ) ) ;
#167 = DIRECTION ( 'NONE',  ( 0.0000000000000000000, 1.000000000000000000, 0.0000000000000000000 ) ) ;
#168 = CARTESIAN_POINT ( 'NONE',  ( 7.654042494670957600E-016, 2.000000000000000000, 6.250000000000000000 ) ) ;
#169 = APPROVAL ( #102, 'UNSPECIFIED' ) ;
#170 = APPLICATION_CONTEXT ( 'configuration controlled 3d designs of mechanical parts and assemblies' ) ;
#171 = PERSON_AND_ORGANIZATION_ROLE ( 'design_owner' ) ;
#172 = DATE_AND_TIME ( #26, #120 ) ;
#173 = COORDINATED_UNIVERSAL_TIME_OFFSET ( 5, 0, .BEHIND. ) ;
#174 = CIRCLE ( 'NONE', #158, 6.250000000000000000 ) ;
#175 = DIRECTION ( 'NONE',  ( -0.0000000000000000000, -1.000000000000000000, -0.0000000000000000000 ) ) ;
ENDSEC;
END-ISO-10303-21;
