ISO-10303-21;
HEADER;
FILE_DESCRIPTION (( 'STEP AP203' ),
    '1' );
FILE_NAME ('36993_37005.step',
    '2017-09-06T15:27:21',
    ( '' ),
    ( '' ),
    'SwSTEP 2.0',
    'SolidWorks 2016',
    '' );
FILE_SCHEMA (( 'CONFIG_CONTROL_DESIGN' ));
ENDSEC;

DATA;
#1 = APPROVAL_ROLE ( '' ) ;
#2 = CARTESIAN_POINT ( 'NONE',  ( -12.50000000000000000, 0.0000000000000000000, 1.500000000000000000 ) ) ;
#3 = PERSON_AND_ORGANIZATION ( #69, #70 ) ;
#4 = PERSON_AND_ORGANIZATION ( #69, #70 ) ;
#5 = DIRECTION ( 'NONE',  ( 1.000000000000000000, 0.0000000000000000000, -0.0000000000000000000 ) ) ;
#6 = ORIENTED_EDGE ( 'NONE', *, *, #106, .T. ) ;
#7 = DATE_AND_TIME ( #22, #133 ) ;
#8 = EDGE_LOOP ( 'NONE', ( #129, #6 ) ) ;
#9 = PERSON_AND_ORGANIZATION_ROLE ( 'design_supplier' ) ;
#10 = EDGE_CURVE ( 'NONE', #27, #103, #153, .T. ) ;
#11 = PERSON_AND_ORGANIZATION_ROLE ( 'creator' ) ;
#12 = AXIS2_PLACEMENT_3D ( 'NONE', #162, #16, #5 ) ;
#13 = DIRECTION ( 'NONE',  ( -1.000000000000000000, 0.0000000000000000000, 0.0000000000000000000 ) ) ;
#14 = FACE_OUTER_BOUND ( 'NONE', #8, .T. ) ;
#15 = DIRECTION ( 'NONE',  ( 0.0000000000000000000, 0.0000000000000000000, 1.000000000000000000 ) ) ;
#16 = DIRECTION ( 'NONE',  ( 0.0000000000000000000, 0.0000000000000000000, 1.000000000000000000 ) ) ;
#17 = CARTESIAN_POINT ( 'NONE',  ( 0.0000000000000000000, 0.0000000000000000000, 1.500000000000000000 ) ) ;
#18 =( LENGTH_UNIT ( ) NAMED_UNIT ( * ) SI_UNIT ( .MILLI., .METRE. ) );
#19 = ORIENTED_EDGE ( 'NONE', *, *, #135, .T. ) ;
#20 = APPROVAL_ROLE ( '' ) ;
#21 = AXIS2_PLACEMENT_3D ( 'NONE', #145, #15, #68 ) ;
#22 = CALENDAR_DATE ( 2017, 6, 9 ) ;
#23 = CALENDAR_DATE ( 2017, 6, 9 ) ;
#24 = PERSON_AND_ORGANIZATION_ROLE ( 'classification_officer' ) ;
#25 = DATE_AND_TIME ( #174, #126 ) ;
#26 = EDGE_LOOP ( 'NONE', ( #132, #19, #73, #90 ) ) ;
#27 = VERTEX_POINT ( 'NONE', #2 ) ;
#28 = PERSON_AND_ORGANIZATION ( #69, #70 ) ;
#29 = APPROVAL_PERSON_ORGANIZATION ( #4, #98, #1 ) ;
#30 = APPROVAL_PERSON_ORGANIZATION ( #3, #140, #20 ) ;
#31 = LINE ( 'NONE', #55, #107 ) ;
#32 =( GEOMETRIC_REPRESENTATION_CONTEXT ( 3 ) GLOBAL_UNCERTAINTY_ASSIGNED_CONTEXT ( ( #117 ) ) GLOBAL_UNIT_ASSIGNED_CONTEXT ( ( #18, #138, #101 ) ) REPRESENTATION_CONTEXT ( 'NONE', 'WORKASPACE' ) );
#33 = AXIS2_PLACEMENT_3D ( 'NONE', #53, #86, #167 ) ;
#34 = CYLINDRICAL_SURFACE ( 'NONE', #33, 12.50000000000000000 ) ;
#35 = ADVANCED_FACE ( 'NONE', ( #160 ), #128, .T. ) ;
#36 = AXIS2_PLACEMENT_3D ( 'NONE', #61, #40, #137 ) ;
#37 = DATE_TIME_ROLE ( 'classification_date' ) ;
#38 = EDGE_LOOP ( 'NONE', ( #76, #169 ) ) ;
#39 = CIRCLE ( 'NONE', #89, 12.50000000000000000 ) ;
#40 = DIRECTION ( 'NONE',  ( 0.0000000000000000000, 0.0000000000000000000, 1.000000000000000000 ) ) ;
#41 = CARTESIAN_POINT ( 'NONE',  ( 12.50000000000000000, 1.530808498934191500E-015, -1.500000000000000000 ) ) ;
#42 = DIRECTION ( 'NONE',  ( 1.000000000000000000, 0.0000000000000000000, 0.0000000000000000000 ) ) ;
#43 = CARTESIAN_POINT ( 'NONE',  ( 0.0000000000000000000, 0.0000000000000000000, 1.500000000000000000 ) ) ;
#44 = PRODUCT_RELATED_PRODUCT_CATEGORY ( 'detail', '', ( #66 ) ) ;
#45 = CIRCLE ( 'NONE', #95, 12.50000000000000000 ) ;
#46 = CARTESIAN_POINT ( 'NONE',  ( 0.0000000000000000000, 0.0000000000000000000, -1.500000000000000000 ) ) ;
#47 = CALENDAR_DATE ( 2017, 6, 9 ) ;
#48 = COORDINATED_UNIVERSAL_TIME_OFFSET ( 5, 0, .BEHIND. ) ;
#49 = DATE_AND_TIME ( #155, #83 ) ;
#50 = FACE_OUTER_BOUND ( 'NONE', #38, .T. ) ;
#51 = CC_DESIGN_PERSON_AND_ORGANIZATION_ASSIGNMENT ( #93, #60, ( #66 ) ) ;
#52 = CLOSED_SHELL ( 'NONE', ( #35, #154, #158, #111 ) ) ;
#53 = CARTESIAN_POINT ( 'NONE',  ( 0.0000000000000000000, 0.0000000000000000000, 1.500000000000000000 ) ) ;
#54 = CARTESIAN_POINT ( 'NONE',  ( -12.50000000000000000, 0.0000000000000000000, 1.500000000000000000 ) ) ;
#55 = CARTESIAN_POINT ( 'NONE',  ( 12.50000000000000000, 1.530808498934191500E-015, 1.500000000000000000 ) ) ;
#56 = CC_DESIGN_APPROVAL ( #98, ( #102 ) ) ;
#57 = APPROVAL_PERSON_ORGANIZATION ( #118, #130, #97 ) ;
#58 = ADVANCED_BREP_SHAPE_REPRESENTATION ( '36993_37005', ( #104, #36 ), #32 ) ;
#59 = LINE ( 'NONE', #54, #127 ) ;
#60 = PERSON_AND_ORGANIZATION_ROLE ( 'design_owner' ) ;
#61 = CARTESIAN_POINT ( 'NONE',  ( 0.0000000000000000000, 0.0000000000000000000, 0.0000000000000000000 ) ) ;
#62 = DIRECTION ( 'NONE',  ( 0.0000000000000000000, 0.0000000000000000000, 1.000000000000000000 ) ) ;
#63 = DATE_TIME_ROLE ( 'creation_date' ) ;
#64 = PERSON_AND_ORGANIZATION ( #69, #70 ) ;
#65 = DIRECTION ( 'NONE',  ( -0.0000000000000000000, -0.0000000000000000000, -1.000000000000000000 ) ) ;
#66 = PRODUCT ( '36993_37005', '36993_37005', '', ( #142 ) ) ;
#67 = PLANE ( 'NONE',  #21 ) ;
#68 = DIRECTION ( 'NONE',  ( 1.000000000000000000, 0.0000000000000000000, -0.0000000000000000000 ) ) ;
#69 = PERSON ( 'UNSPECIFIED', 'UNSPECIFIED', 'UNSPECIFIED', ('UNSPECIFIED'), ('UNSPECIFIED'), ('UNSPECIFIED') ) ;
#70 = ORGANIZATION ( 'UNSPECIFIED', 'UNSPECIFIED', '' ) ;
#71 = DATE_AND_TIME ( #23, #149 ) ;
#72 = CC_DESIGN_SECURITY_CLASSIFICATION ( #150, ( #122 ) ) ;
#73 = ORIENTED_EDGE ( 'NONE', *, *, #92, .T. ) ;
#74 = LOCAL_TIME ( 11, 27, 21.00000000000000000, #112 ) ;
#75 = DIRECTION ( 'NONE',  ( 0.0000000000000000000, 0.0000000000000000000, 1.000000000000000000 ) ) ;
#76 = ORIENTED_EDGE ( 'NONE', *, *, #121, .F. ) ;
#77 = ORIENTED_EDGE ( 'NONE', *, *, #114, .T. ) ;
#78 = DIRECTION ( 'NONE',  ( -0.0000000000000000000, -0.0000000000000000000, -1.000000000000000000 ) ) ;
#79 = DIRECTION ( 'NONE',  ( -0.0000000000000000000, -0.0000000000000000000, -1.000000000000000000 ) ) ;
#80 = ORIENTED_EDGE ( 'NONE', *, *, #135, .F. ) ;
#81 = CC_DESIGN_PERSON_AND_ORGANIZATION_ASSIGNMENT ( #28, #11, ( #102 ) ) ;
#82 = APPROVAL_STATUS ( 'not_yet_approved' ) ;
#83 = LOCAL_TIME ( 11, 27, 21.00000000000000000, #173 ) ;
#84 = APPLICATION_CONTEXT ( 'configuration controlled 3d designs of mechanical parts and assemblies' ) ;
#85 = APPROVAL_STATUS ( 'not_yet_approved' ) ;
#86 = DIRECTION ( 'NONE',  ( -0.0000000000000000000, -0.0000000000000000000, -1.000000000000000000 ) ) ;
#87 = CARTESIAN_POINT ( 'NONE',  ( -12.50000000000000000, 0.0000000000000000000, -1.500000000000000000 ) ) ;
#88 = CC_DESIGN_PERSON_AND_ORGANIZATION_ASSIGNMENT ( #170, #9, ( #122 ) ) ;
#89 = AXIS2_PLACEMENT_3D ( 'NONE', #134, #75, #42 ) ;
#90 = ORIENTED_EDGE ( 'NONE', *, *, #114, .F. ) ;
#91 = PRODUCT_DEFINITION_SHAPE ( 'NONE', 'NONE',  #102 ) ;
#92 = EDGE_CURVE ( 'NONE', #157, #96, #39, .T. ) ;
#93 = PERSON_AND_ORGANIZATION ( #69, #70 ) ;
#94 = SECURITY_CLASSIFICATION_LEVEL ( 'unclassified' ) ;
#95 = AXIS2_PLACEMENT_3D ( 'NONE', #46, #147, #144 ) ;
#96 = VERTEX_POINT ( 'NONE', #87 ) ;
#97 = APPROVAL_ROLE ( '' ) ;
#98 = APPROVAL ( #82, 'UNSPECIFIED' ) ;
#99 = DIRECTION ( 'NONE',  ( 1.000000000000000000, 0.0000000000000000000, 0.0000000000000000000 ) ) ;
#100 = DIRECTION ( 'NONE',  ( 1.000000000000000000, 0.0000000000000000000, 0.0000000000000000000 ) ) ;
#101 =( NAMED_UNIT ( * ) SI_UNIT ( $, .STERADIAN. ) SOLID_ANGLE_UNIT ( ) );
#102 = PRODUCT_DEFINITION ( 'UNKNOWN', '', #122, #152 ) ;
#103 = VERTEX_POINT ( 'NONE', #165 ) ;
#104 = MANIFOLD_SOLID_BREP ( 'Boss-Extrude1', #52 ) ;
#105 = APPROVAL_DATE_TIME ( #7, #130 ) ;
#106 = EDGE_CURVE ( 'NONE', #103, #27, #151, .T. ) ;
#107 = VECTOR ( 'NONE', #65, 1000.000000000000000 ) ;
#108 = EDGE_LOOP ( 'NONE', ( #80, #109, #77, #141 ) ) ;
#109 = ORIENTED_EDGE ( 'NONE', *, *, #10, .F. ) ;
#110 = SHAPE_DEFINITION_REPRESENTATION ( #91, #58 ) ;
#111 = ADVANCED_FACE ( 'NONE', ( #50 ), #115, .F. ) ;
#112 = COORDINATED_UNIVERSAL_TIME_OFFSET ( 5, 0, .BEHIND. ) ;
#113 = CC_DESIGN_DATE_AND_TIME_ASSIGNMENT ( #71, #63, ( #102 ) ) ;
#114 = EDGE_CURVE ( 'NONE', #27, #96, #59, .T. ) ;
#115 = PLANE ( 'NONE',  #12 ) ;
#116 = PERSON_AND_ORGANIZATION ( #69, #70 ) ;
#117 = UNCERTAINTY_MEASURE_WITH_UNIT (LENGTH_MEASURE( 1.000000000000000100E-005 ), #18, 'distance_accuracy_value', 'NONE');
#118 = PERSON_AND_ORGANIZATION ( #69, #70 ) ;
#119 = FACE_OUTER_BOUND ( 'NONE', #108, .T. ) ;
#120 = DIRECTION ( 'NONE',  ( 0.0000000000000000000, 0.0000000000000000000, 1.000000000000000000 ) ) ;
#121 = EDGE_CURVE ( 'NONE', #96, #157, #45, .T. ) ;
#122 = PRODUCT_DEFINITION_FORMATION_WITH_SPECIFIED_SOURCE ( 'ANY', '', #66, .NOT_KNOWN. ) ;
#123 = COORDINATED_UNIVERSAL_TIME_OFFSET ( 5, 0, .BEHIND. ) ;
#124 = AXIS2_PLACEMENT_3D ( 'NONE', #163, #62, #100 ) ;
#125 = COORDINATED_UNIVERSAL_TIME_OFFSET ( 5, 0, .BEHIND. ) ;
#126 = LOCAL_TIME ( 11, 27, 21.00000000000000000, #123 ) ;
#127 = VECTOR ( 'NONE', #79, 1000.000000000000000 ) ;
#128 = CYLINDRICAL_SURFACE ( 'NONE', #168, 12.50000000000000000 ) ;
#129 = ORIENTED_EDGE ( 'NONE', *, *, #10, .T. ) ;
#130 = APPROVAL ( #85, 'UNSPECIFIED' ) ;
#131 = APPLICATION_PROTOCOL_DEFINITION ( 'international standard', 'config_control_design', 1994, #156 ) ;
#132 = ORIENTED_EDGE ( 'NONE', *, *, #106, .F. ) ;
#133 = LOCAL_TIME ( 11, 27, 21.00000000000000000, #48 ) ;
#134 = CARTESIAN_POINT ( 'NONE',  ( 0.0000000000000000000, 0.0000000000000000000, -1.500000000000000000 ) ) ;
#135 = EDGE_CURVE ( 'NONE', #103, #157, #31, .T. ) ;
#136 = APPROVAL_DATE_TIME ( #49, #98 ) ;
#137 = DIRECTION ( 'NONE',  ( 1.000000000000000000, 0.0000000000000000000, 0.0000000000000000000 ) ) ;
#138 =( NAMED_UNIT ( * ) PLANE_ANGLE_UNIT ( ) SI_UNIT ( $, .RADIAN. ) );
#139 = AXIS2_PLACEMENT_3D ( 'NONE', #17, #120, #99 ) ;
#140 = APPROVAL ( #143, 'UNSPECIFIED' ) ;
#141 = ORIENTED_EDGE ( 'NONE', *, *, #121, .T. ) ;
#142 = MECHANICAL_CONTEXT ( 'NONE', #84, 'mechanical' ) ;
#143 = APPROVAL_STATUS ( 'not_yet_approved' ) ;
#144 = DIRECTION ( 'NONE',  ( 1.000000000000000000, 0.0000000000000000000, 0.0000000000000000000 ) ) ;
#145 = CARTESIAN_POINT ( 'NONE',  ( 0.0000000000000000000, 0.0000000000000000000, 1.500000000000000000 ) ) ;
#146 = CC_DESIGN_APPROVAL ( #130, ( #122 ) ) ;
#147 = DIRECTION ( 'NONE',  ( 0.0000000000000000000, 0.0000000000000000000, 1.000000000000000000 ) ) ;
#148 = CC_DESIGN_APPROVAL ( #140, ( #150 ) ) ;
#149 = LOCAL_TIME ( 11, 27, 21.00000000000000000, #125 ) ;
#150 = SECURITY_CLASSIFICATION ( '', '', #94 ) ;
#151 = CIRCLE ( 'NONE', #139, 12.50000000000000000 ) ;
#152 = DESIGN_CONTEXT ( 'detailed design', #156, 'design' ) ;
#153 = CIRCLE ( 'NONE', #124, 12.50000000000000000 ) ;
#154 = ADVANCED_FACE ( 'NONE', ( #119 ), #34, .T. ) ;
#155 = CALENDAR_DATE ( 2017, 6, 9 ) ;
#156 = APPLICATION_CONTEXT ( 'configuration controlled 3d designs of mechanical parts and assemblies' ) ;
#157 = VERTEX_POINT ( 'NONE', #41 ) ;
#158 = ADVANCED_FACE ( 'NONE', ( #14 ), #67, .T. ) ;
#159 = APPLICATION_PROTOCOL_DEFINITION ( 'international standard', 'config_control_design', 1994, #84 ) ;
#160 = FACE_OUTER_BOUND ( 'NONE', #26, .T. ) ;
#161 = PERSON_AND_ORGANIZATION_ROLE ( 'creator' ) ;
#162 = CARTESIAN_POINT ( 'NONE',  ( 0.0000000000000000000, 0.0000000000000000000, -1.500000000000000000 ) ) ;
#163 = CARTESIAN_POINT ( 'NONE',  ( 0.0000000000000000000, 0.0000000000000000000, 1.500000000000000000 ) ) ;
#164 = CC_DESIGN_DATE_AND_TIME_ASSIGNMENT ( #166, #37, ( #150 ) ) ;
#165 = CARTESIAN_POINT ( 'NONE',  ( 12.50000000000000000, 1.530808498934191500E-015, 1.500000000000000000 ) ) ;
#166 = DATE_AND_TIME ( #47, #74 ) ;
#167 = DIRECTION ( 'NONE',  ( -1.000000000000000000, 0.0000000000000000000, 0.0000000000000000000 ) ) ;
#168 = AXIS2_PLACEMENT_3D ( 'NONE', #43, #78, #13 ) ;
#169 = ORIENTED_EDGE ( 'NONE', *, *, #92, .F. ) ;
#170 = PERSON_AND_ORGANIZATION ( #69, #70 ) ;
#171 = CC_DESIGN_PERSON_AND_ORGANIZATION_ASSIGNMENT ( #116, #24, ( #150 ) ) ;
#172 = CC_DESIGN_PERSON_AND_ORGANIZATION_ASSIGNMENT ( #64, #161, ( #122 ) ) ;
#173 = COORDINATED_UNIVERSAL_TIME_OFFSET ( 5, 0, .BEHIND. ) ;
#174 = CALENDAR_DATE ( 2017, 6, 9 ) ;
#175 = APPROVAL_DATE_TIME ( #25, #140 ) ;
ENDSEC;
END-ISO-10303-21;
