ISO-10303-21;
HEADER;
FILE_DESCRIPTION (( 'STEP AP203' ),
    '1' );
FILE_NAME ('Web Model 68363.STEP',
    '2017-01-31T19:48:37',
    ( '' ),
    ( '' ),
    'SwSTEP 2.0',
    'SolidWorks 2016',
    '' );
FILE_SCHEMA (( 'CONFIG_CONTROL_DESIGN' ));
ENDSEC;

DATA;
#1 = EDGE_CURVE ( 'NONE', #65, #170, #89, .T. ) ;
#2 = EDGE_LOOP ( 'NONE', ( #51, #33 ) ) ;
#3 = PERSON_AND_ORGANIZATION ( #88, #169 ) ;
#4 = APPLICATION_PROTOCOL_DEFINITION ( 'international standard', 'config_control_design', 1994, #143 ) ;
#5 = LOCAL_TIME ( 14, 48, 37.00000000000000000, #131 ) ;
#6 = AXIS2_PLACEMENT_3D ( 'NONE', #39, #151, #93 ) ;
#7 = CLOSED_SHELL ( 'NONE', ( #29, #86, #126, #155 ) ) ;
#8 = CARTESIAN_POINT ( 'NONE',  ( 0.0000000000000000000, 0.0000000000000000000, 3.000000000000000000 ) ) ;
#9 = AXIS2_PLACEMENT_3D ( 'NONE', #108, #43, #163 ) ;
#10 = LOCAL_TIME ( 14, 48, 37.00000000000000000, #132 ) ;
#11 = FACE_OUTER_BOUND ( 'NONE', #172, .T. ) ;
#12 = AXIS2_PLACEMENT_3D ( 'NONE', #164, #110, #62 ) ;
#13 = SECURITY_CLASSIFICATION ( '', '', #102 ) ;
#14 = PERSON_AND_ORGANIZATION_ROLE ( 'design_supplier' ) ;
#15 = ORIENTED_EDGE ( 'NONE', *, *, #38, .F. ) ;
#16 = AXIS2_PLACEMENT_3D ( 'NONE', #24, #120, #138 ) ;
#17 = APPROVAL_STATUS ( 'not_yet_approved' ) ;
#18 = DATE_AND_TIME ( #97, #26 ) ;
#19 = FACE_OUTER_BOUND ( 'NONE', #78, .T. ) ;
#20 = DIRECTION ( 'NONE',  ( 0.0000000000000000000, 0.0000000000000000000, 1.000000000000000000 ) ) ;
#21 = DIRECTION ( 'NONE',  ( 0.0000000000000000000, 0.0000000000000000000, 1.000000000000000000 ) ) ;
#22 =( GEOMETRIC_REPRESENTATION_CONTEXT ( 3 ) GLOBAL_UNCERTAINTY_ASSIGNED_CONTEXT ( ( #136 ) ) GLOBAL_UNIT_ASSIGNED_CONTEXT ( ( #175, #139, #54 ) ) REPRESENTATION_CONTEXT ( 'NONE', 'WORKASPACE' ) );
#23 = LOCAL_TIME ( 14, 48, 37.00000000000000000, #58 ) ;
#24 = CARTESIAN_POINT ( 'NONE',  ( 0.0000000000000000000, 0.0000000000000000000, 0.0000000000000000000 ) ) ;
#25 = CC_DESIGN_PERSON_AND_ORGANIZATION_ASSIGNMENT ( #146, #118, ( #13 ) ) ;
#26 = LOCAL_TIME ( 14, 48, 37.00000000000000000, #59 ) ;
#27 = ORIENTED_EDGE ( 'NONE', *, *, #57, .T. ) ;
#28 = APPROVAL ( #99, 'UNSPECIFIED' ) ;
#29 = ADVANCED_FACE ( 'NONE', ( #19 ), #46, .T. ) ;
#30 = PERSON_AND_ORGANIZATION_ROLE ( 'design_owner' ) ;
#31 = CC_DESIGN_PERSON_AND_ORGANIZATION_ASSIGNMENT ( #3, #30, ( #80 ) ) ;
#32 = DATE_AND_TIME ( #168, #98 ) ;
#33 = ORIENTED_EDGE ( 'NONE', *, *, #1, .T. ) ;
#34 = CC_DESIGN_DATE_AND_TIME_ASSIGNMENT ( #32, #145, ( #13 ) ) ;
#35 = COORDINATED_UNIVERSAL_TIME_OFFSET ( 5, 0, .BEHIND. ) ;
#36 = DATE_AND_TIME ( #157, #5 ) ;
#37 = CC_DESIGN_APPROVAL ( #84, ( #13 ) ) ;
#38 = EDGE_CURVE ( 'NONE', #70, #75, #67, .T. ) ;
#39 = CARTESIAN_POINT ( 'NONE',  ( 0.0000000000000000000, 0.0000000000000000000, 3.000000000000000000 ) ) ;
#40 = CARTESIAN_POINT ( 'NONE',  ( -6.249999999999998200, 0.0000000000000000000, 3.000000000000000000 ) ) ;
#41 = ORIENTED_EDGE ( 'NONE', *, *, #57, .F. ) ;
#42 = DIRECTION ( 'NONE',  ( -0.0000000000000000000, -0.0000000000000000000, -1.000000000000000000 ) ) ;
#43 = DIRECTION ( 'NONE',  ( 0.0000000000000000000, 0.0000000000000000000, 1.000000000000000000 ) ) ;
#44 = DIRECTION ( 'NONE',  ( -1.000000000000000000, 0.0000000000000000000, 0.0000000000000000000 ) ) ;
#45 = ORIENTED_EDGE ( 'NONE', *, *, #173, .F. ) ;
#46 = CYLINDRICAL_SURFACE ( 'NONE', #153, 6.249999999999998200 ) ;
#47 = APPLICATION_PROTOCOL_DEFINITION ( 'international standard', 'config_control_design', 1994, #61 ) ;
#48 = APPROVAL_DATE_TIME ( #73, #135 ) ;
#49 = CIRCLE ( 'NONE', #141, 6.249999999999998200 ) ;
#50 = CIRCLE ( 'NONE', #9, 6.249999999999998200 ) ;
#51 = ORIENTED_EDGE ( 'NONE', *, *, #173, .T. ) ;
#52 = DIRECTION ( 'NONE',  ( 1.000000000000000000, 0.0000000000000000000, -0.0000000000000000000 ) ) ;
#53 = APPROVAL_DATE_TIME ( #77, #84 ) ;
#54 =( NAMED_UNIT ( * ) SI_UNIT ( $, .STERADIAN. ) SOLID_ANGLE_UNIT ( ) );
#55 = CYLINDRICAL_SURFACE ( 'NONE', #150, 6.249999999999998200 ) ;
#56 = EDGE_LOOP ( 'NONE', ( #133, #15 ) ) ;
#57 = EDGE_CURVE ( 'NONE', #65, #70, #91, .T. ) ;
#58 = COORDINATED_UNIVERSAL_TIME_OFFSET ( 5, 0, .BEHIND. ) ;
#59 = COORDINATED_UNIVERSAL_TIME_OFFSET ( 5, 0, .BEHIND. ) ;
#60 = MANIFOLD_SOLID_BREP ( 'Extrude1', #7 ) ;
#61 = APPLICATION_CONTEXT ( 'configuration controlled 3d designs of mechanical parts and assemblies' ) ;
#62 = DIRECTION ( 'NONE',  ( 1.000000000000000000, 0.0000000000000000000, 0.0000000000000000000 ) ) ;
#63 = PRODUCT_DEFINITION_FORMATION_WITH_SPECIFIED_SOURCE ( 'ANY', '', #80, .NOT_KNOWN. ) ;
#64 = PERSON_AND_ORGANIZATION ( #88, #169 ) ;
#65 = VERTEX_POINT ( 'NONE', #149 ) ;
#66 = CARTESIAN_POINT ( 'NONE',  ( -6.249999999999998200, 0.0000000000000000000, 0.0000000000000000000 ) ) ;
#67 = CIRCLE ( 'NONE', #16, 6.249999999999998200 ) ;
#68 = AXIS2_PLACEMENT_3D ( 'NONE', #83, #20, #69 ) ;
#69 = DIRECTION ( 'NONE',  ( 1.000000000000000000, 0.0000000000000000000, -0.0000000000000000000 ) ) ;
#70 = VERTEX_POINT ( 'NONE', #92 ) ;
#71 = AXIS2_PLACEMENT_3D ( 'NONE', #105, #21, #52 ) ;
#72 = PERSON_AND_ORGANIZATION ( #88, #169 ) ;
#73 = DATE_AND_TIME ( #85, #10 ) ;
#74 = MECHANICAL_CONTEXT ( 'NONE', #143, 'mechanical' ) ;
#75 = VERTEX_POINT ( 'NONE', #66 ) ;
#76 = CC_DESIGN_SECURITY_CLASSIFICATION ( #13, ( #63 ) ) ;
#77 = DATE_AND_TIME ( #103, #23 ) ;
#78 = EDGE_LOOP ( 'NONE', ( #82, #27, #137, #101 ) ) ;
#79 = PERSON_AND_ORGANIZATION_ROLE ( 'creator' ) ;
#80 = PRODUCT ( 'Web Model 68363', 'Web Model 68363', '', ( #74 ) ) ;
#81 = FACE_OUTER_BOUND ( 'NONE', #56, .T. ) ;
#82 = ORIENTED_EDGE ( 'NONE', *, *, #1, .F. ) ;
#83 = CARTESIAN_POINT ( 'NONE',  ( 0.0000000000000000000, 0.0000000000000000000, 0.0000000000000000000 ) ) ;
#84 = APPROVAL ( #17, 'UNSPECIFIED' ) ;
#85 = CALENDAR_DATE ( 2017, 31, 1 ) ;
#86 = ADVANCED_FACE ( 'NONE', ( #11 ), #55, .T. ) ;
#87 = APPROVAL_DATE_TIME ( #18, #28 ) ;
#88 = PERSON ( 'UNSPECIFIED', 'UNSPECIFIED', 'UNSPECIFIED', ('UNSPECIFIED'), ('UNSPECIFIED'), ('UNSPECIFIED') ) ;
#89 = CIRCLE ( 'NONE', #6, 6.249999999999998200 ) ;
#90 = PRODUCT_RELATED_PRODUCT_CATEGORY ( 'detail', '', ( #80 ) ) ;
#91 = LINE ( 'NONE', #134, #114 ) ;
#92 = CARTESIAN_POINT ( 'NONE',  ( 6.249999999999998200, 7.654042494670955600E-016, 0.0000000000000000000 ) ) ;
#93 = DIRECTION ( 'NONE',  ( 1.000000000000000000, 0.0000000000000000000, 0.0000000000000000000 ) ) ;
#94 = CARTESIAN_POINT ( 'NONE',  ( 0.0000000000000000000, 0.0000000000000000000, 3.000000000000000000 ) ) ;
#95 = CARTESIAN_POINT ( 'NONE',  ( 0.0000000000000000000, 0.0000000000000000000, 3.000000000000000000 ) ) ;
#96 = ORIENTED_EDGE ( 'NONE', *, *, #107, .T. ) ;
#97 = CALENDAR_DATE ( 2017, 31, 1 ) ;
#98 = LOCAL_TIME ( 14, 48, 37.00000000000000000, #35 ) ;
#99 = APPROVAL_STATUS ( 'not_yet_approved' ) ;
#100 = SHAPE_DEFINITION_REPRESENTATION ( #129, #122 ) ;
#101 = ORIENTED_EDGE ( 'NONE', *, *, #107, .F. ) ;
#102 = SECURITY_CLASSIFICATION_LEVEL ( 'unclassified' ) ;
#103 = CALENDAR_DATE ( 2017, 31, 1 ) ;
#104 = ORIENTED_EDGE ( 'NONE', *, *, #144, .T. ) ;
#105 = CARTESIAN_POINT ( 'NONE',  ( 0.0000000000000000000, 0.0000000000000000000, 3.000000000000000000 ) ) ;
#106 = DIRECTION ( 'NONE',  ( -0.0000000000000000000, -0.0000000000000000000, -1.000000000000000000 ) ) ;
#107 = EDGE_CURVE ( 'NONE', #170, #75, #117, .T. ) ;
#108 = CARTESIAN_POINT ( 'NONE',  ( 0.0000000000000000000, 0.0000000000000000000, 0.0000000000000000000 ) ) ;
#109 = PLANE ( 'NONE',  #71 ) ;
#110 = DIRECTION ( 'NONE',  ( 0.0000000000000000000, 0.0000000000000000000, 1.000000000000000000 ) ) ;
#111 = PERSON_AND_ORGANIZATION ( #88, #169 ) ;
#112 = CC_DESIGN_APPROVAL ( #28, ( #63 ) ) ;
#113 = PERSON_AND_ORGANIZATION ( #88, #169 ) ;
#114 = VECTOR ( 'NONE', #152, 1000.000000000000000 ) ;
#115 = DATE_TIME_ROLE ( 'creation_date' ) ;
#116 = APPROVAL_ROLE ( '' ) ;
#117 = LINE ( 'NONE', #121, #140 ) ;
#118 = PERSON_AND_ORGANIZATION_ROLE ( 'classification_officer' ) ;
#119 = FACE_OUTER_BOUND ( 'NONE', #2, .T. ) ;
#120 = DIRECTION ( 'NONE',  ( 0.0000000000000000000, 0.0000000000000000000, 1.000000000000000000 ) ) ;
#121 = CARTESIAN_POINT ( 'NONE',  ( -6.249999999999998200, 0.0000000000000000000, 3.000000000000000000 ) ) ;
#122 = ADVANCED_BREP_SHAPE_REPRESENTATION ( 'Web Model 68363', ( #60, #12 ), #22 ) ;
#123 = DIRECTION ( 'NONE',  ( -0.0000000000000000000, -0.0000000000000000000, -1.000000000000000000 ) ) ;
#124 = DESIGN_CONTEXT ( 'detailed design', #61, 'design' ) ;
#125 = PRODUCT_DEFINITION ( 'UNKNOWN', '', #63, #124 ) ;
#126 = ADVANCED_FACE ( 'NONE', ( #119 ), #109, .T. ) ;
#127 = APPROVAL_PERSON_ORGANIZATION ( #64, #28, #116 ) ;
#128 = APPROVAL_STATUS ( 'not_yet_approved' ) ;
#129 = PRODUCT_DEFINITION_SHAPE ( 'NONE', 'NONE',  #125 ) ;
#130 = APPROVAL_PERSON_ORGANIZATION ( #72, #84, #158 ) ;
#131 = COORDINATED_UNIVERSAL_TIME_OFFSET ( 5, 0, .BEHIND. ) ;
#132 = COORDINATED_UNIVERSAL_TIME_OFFSET ( 5, 0, .BEHIND. ) ;
#133 = ORIENTED_EDGE ( 'NONE', *, *, #144, .F. ) ;
#134 = CARTESIAN_POINT ( 'NONE',  ( 6.249999999999998200, 7.654042494670955600E-016, 3.000000000000000000 ) ) ;
#135 = APPROVAL ( #128, 'UNSPECIFIED' ) ;
#136 = UNCERTAINTY_MEASURE_WITH_UNIT (LENGTH_MEASURE( 1.000000000000000100E-005 ), #175, 'distance_accuracy_value', 'NONE');
#137 = ORIENTED_EDGE ( 'NONE', *, *, #38, .T. ) ;
#138 = DIRECTION ( 'NONE',  ( 1.000000000000000000, 0.0000000000000000000, 0.0000000000000000000 ) ) ;
#139 =( NAMED_UNIT ( * ) PLANE_ANGLE_UNIT ( ) SI_UNIT ( $, .RADIAN. ) );
#140 = VECTOR ( 'NONE', #42, 1000.000000000000000 ) ;
#141 = AXIS2_PLACEMENT_3D ( 'NONE', #95, #165, #154 ) ;
#142 = PERSON_AND_ORGANIZATION ( #88, #169 ) ;
#143 = APPLICATION_CONTEXT ( 'configuration controlled 3d designs of mechanical parts and assemblies' ) ;
#144 = EDGE_CURVE ( 'NONE', #75, #70, #50, .T. ) ;
#145 = DATE_TIME_ROLE ( 'classification_date' ) ;
#146 = PERSON_AND_ORGANIZATION ( #88, #169 ) ;
#147 = PERSON_AND_ORGANIZATION_ROLE ( 'creator' ) ;
#148 = DIRECTION ( 'NONE',  ( -1.000000000000000000, 0.0000000000000000000, 0.0000000000000000000 ) ) ;
#149 = CARTESIAN_POINT ( 'NONE',  ( 6.249999999999998200, 7.654042494670955600E-016, 3.000000000000000000 ) ) ;
#150 = AXIS2_PLACEMENT_3D ( 'NONE', #94, #106, #148 ) ;
#151 = DIRECTION ( 'NONE',  ( 0.0000000000000000000, 0.0000000000000000000, 1.000000000000000000 ) ) ;
#152 = DIRECTION ( 'NONE',  ( -0.0000000000000000000, -0.0000000000000000000, -1.000000000000000000 ) ) ;
#153 = AXIS2_PLACEMENT_3D ( 'NONE', #8, #123, #44 ) ;
#154 = DIRECTION ( 'NONE',  ( 1.000000000000000000, 0.0000000000000000000, 0.0000000000000000000 ) ) ;
#155 = ADVANCED_FACE ( 'NONE', ( #81 ), #162, .F. ) ;
#156 = CC_DESIGN_APPROVAL ( #135, ( #125 ) ) ;
#157 = CALENDAR_DATE ( 2017, 31, 1 ) ;
#158 = APPROVAL_ROLE ( '' ) ;
#159 = APPROVAL_PERSON_ORGANIZATION ( #111, #135, #167 ) ;
#160 = CC_DESIGN_PERSON_AND_ORGANIZATION_ASSIGNMENT ( #113, #147, ( #63 ) ) ;
#161 = CC_DESIGN_PERSON_AND_ORGANIZATION_ASSIGNMENT ( #166, #79, ( #125 ) ) ;
#162 = PLANE ( 'NONE',  #68 ) ;
#163 = DIRECTION ( 'NONE',  ( 1.000000000000000000, 0.0000000000000000000, 0.0000000000000000000 ) ) ;
#164 = CARTESIAN_POINT ( 'NONE',  ( 0.0000000000000000000, 0.0000000000000000000, 0.0000000000000000000 ) ) ;
#165 = DIRECTION ( 'NONE',  ( 0.0000000000000000000, 0.0000000000000000000, 1.000000000000000000 ) ) ;
#166 = PERSON_AND_ORGANIZATION ( #88, #169 ) ;
#167 = APPROVAL_ROLE ( '' ) ;
#168 = CALENDAR_DATE ( 2017, 31, 1 ) ;
#169 = ORGANIZATION ( 'UNSPECIFIED', 'UNSPECIFIED', '' ) ;
#170 = VERTEX_POINT ( 'NONE', #40 ) ;
#171 = CC_DESIGN_DATE_AND_TIME_ASSIGNMENT ( #36, #115, ( #125 ) ) ;
#172 = EDGE_LOOP ( 'NONE', ( #41, #45, #96, #104 ) ) ;
#173 = EDGE_CURVE ( 'NONE', #170, #65, #49, .T. ) ;
#174 = CC_DESIGN_PERSON_AND_ORGANIZATION_ASSIGNMENT ( #142, #14, ( #63 ) ) ;
#175 =( LENGTH_UNIT ( ) NAMED_UNIT ( * ) SI_UNIT ( .MILLI., .METRE. ) );
ENDSEC;
END-ISO-10303-21;
