ISO-10303-21;
HEADER;
FILE_DESCRIPTION (( 'STEP AP203' ),
    '1' );
FILE_NAME ('Web Model 18363_18363.step',
    '2021-06-28T19:51:28',
    ( '' ),
    ( '' ),
    'SwSTEP 2.0',
    'SolidWorks 2018',
    '' );
FILE_SCHEMA (( 'CONFIG_CONTROL_DESIGN' ));
ENDSEC;

DATA;
#1 = ORIENTED_EDGE ( 'NONE', *, *, #117, .T. ) ;
#2 = VECTOR ( 'NONE', #68, 39.37007874015748143 ) ;
#3 = AXIS2_PLACEMENT_3D ( 'NONE', #6, #89, #23 ) ;
#4 = EDGE_LOOP ( 'NONE', ( #1, #35 ) ) ;
#5 = LOCAL_TIME ( 15, 51, 28.00000000000000000, #47 ) ;
#6 = CARTESIAN_POINT ( 'NONE',  ( 0.000000000000000000, 0.000000000000000000, 0.1181102362204724532 ) ) ;
#7 = CARTESIAN_POINT ( 'NONE',  ( 0.000000000000000000, 0.000000000000000000, 0.1181102362204724532 ) ) ;
#8 = DIRECTION ( 'NONE',  ( 1.000000000000000000, 0.000000000000000000, 0.000000000000000000 ) ) ;
#9 = ADVANCED_FACE ( 'NONE', ( #99 ), #65, .T. ) ;
#10 =( NAMED_UNIT ( * ) PLANE_ANGLE_UNIT ( ) SI_UNIT ( $, .RADIAN. ) );
#11 = LINE ( 'NONE', #25, #163 ) ;
#12 = DIRECTION ( 'NONE',  ( 1.000000000000000000, 0.000000000000000000, 0.000000000000000000 ) ) ;
#13 = AXIS2_PLACEMENT_3D ( 'NONE', #55, #169, #140 ) ;
#14 = DIRECTION ( 'NONE',  ( 0.000000000000000000, 0.000000000000000000, 1.000000000000000000 ) ) ;
#15 = PERSON_AND_ORGANIZATION ( #52, #137 ) ;
#16 = PERSON_AND_ORGANIZATION ( #52, #137 ) ;
#17 = ADVANCED_FACE ( 'NONE', ( #75 ), #114, .T. ) ;
#18 =( GEOMETRIC_REPRESENTATION_CONTEXT ( 3 ) GLOBAL_UNCERTAINTY_ASSIGNED_CONTEXT ( ( #91 ) ) GLOBAL_UNIT_ASSIGNED_CONTEXT ( ( #175, #10, #106 ) ) REPRESENTATION_CONTEXT ( 'NONE', 'WORKASPACE' ) );
#19 = EDGE_LOOP ( 'NONE', ( #150, #151 ) ) ;
#20 = APPROVAL_DATE_TIME ( #141, #178 ) ;
#21 = EDGE_LOOP ( 'NONE', ( #116, #165, #48, #136 ) ) ;
#22 = AXIS2_PLACEMENT_3D ( 'NONE', #41, #158, #8 ) ;
#23 = DIRECTION ( 'NONE',  ( 1.000000000000000000, 0.000000000000000000, 0.000000000000000000 ) ) ;
#24 = PRODUCT ( 'Web Model 18363_18363', 'Web Model 18363_18363', '', ( #159 ) ) ;
#25 = CARTESIAN_POINT ( 'NONE',  ( -1.000000000000000000, 0.000000000000000000, 0.1181102362204724532 ) ) ;
#26 = CIRCLE ( 'NONE', #85, 1.000000000000000000 ) ;
#27 = DESIGN_CONTEXT ( 'detailed design', #61, 'design' ) ;
#28 = DIRECTION ( 'NONE',  ( 1.000000000000000000, 0.000000000000000000, -0.000000000000000000 ) ) ;
#29 = COORDINATED_UNIVERSAL_TIME_OFFSET ( 5, 0, .BEHIND. ) ;
#30 = APPROVAL_ROLE ( '' ) ;
#31 = DATE_TIME_ROLE ( 'creation_date' ) ;
#32 = APPROVAL ( #177, 'UNSPECIFIED' ) ;
#33 = DATE_AND_TIME ( #135, #172 ) ;
#34 = AXIS2_PLACEMENT_3D ( 'NONE', #124, #14, #12 ) ;
#35 = ORIENTED_EDGE ( 'NONE', *, *, #107, .T. ) ;
#36 = CC_DESIGN_PERSON_AND_ORGANIZATION_ASSIGNMENT ( #145, #160, ( #50 ) ) ;
#37 = CALENDAR_DATE ( 2021, 28, 6 ) ;
#38 = CARTESIAN_POINT ( 'NONE',  ( 0.000000000000000000, 0.000000000000000000, 0.1181102362204724532 ) ) ;
#39 = CC_DESIGN_DATE_AND_TIME_ASSIGNMENT ( #33, #31, ( #66 ) ) ;
#40 = DIRECTION ( 'NONE',  ( 0.000000000000000000, 0.000000000000000000, 1.000000000000000000 ) ) ;
#41 = CARTESIAN_POINT ( 'NONE',  ( 0.000000000000000000, 0.000000000000000000, 0.1181102362204724532 ) ) ;
#42 = PERSON_AND_ORGANIZATION_ROLE ( 'design_owner' ) ;
#43 = CIRCLE ( 'NONE', #115, 1.000000000000000000 ) ;
#44 = CC_DESIGN_PERSON_AND_ORGANIZATION_ASSIGNMENT ( #15, #131, ( #50 ) ) ;
#45 = DIRECTION ( 'NONE',  ( 0.000000000000000000, 0.000000000000000000, 1.000000000000000000 ) ) ;
#46 = DATE_AND_TIME ( #76, #112 ) ;
#47 = COORDINATED_UNIVERSAL_TIME_OFFSET ( 5, 0, .BEHIND. ) ;
#48 = ORIENTED_EDGE ( 'NONE', *, *, #148, .T. ) ;
#49 = ORIENTED_EDGE ( 'NONE', *, *, #107, .F. ) ;
#50 = PRODUCT_DEFINITION_FORMATION_WITH_SPECIFIED_SOURCE ( 'ANY', '', #24, .NOT_KNOWN. ) ;
#51 = LOCAL_TIME ( 15, 51, 28.00000000000000000, #62 ) ;
#52 = PERSON ( 'UNSPECIFIED', 'UNSPECIFIED', 'UNSPECIFIED', ('UNSPECIFIED'), ('UNSPECIFIED'), ('UNSPECIFIED') ) ;
#53 = CC_DESIGN_SECURITY_CLASSIFICATION ( #74, ( #50 ) ) ;
#54 = DIRECTION ( 'NONE',  ( -0.000000000000000000, -0.000000000000000000, -1.000000000000000000 ) ) ;
#55 = CARTESIAN_POINT ( 'NONE',  ( 0.000000000000000000, 0.000000000000000000, 0.1181102362204724532 ) ) ;
#56 = CALENDAR_DATE ( 2021, 28, 6 ) ;
#57 = CARTESIAN_POINT ( 'NONE',  ( -1.000000000000000000, 0.000000000000000000, 0.000000000000000000 ) ) ;
#58 = PERSON_AND_ORGANIZATION ( #52, #137 ) ;
#59 = ADVANCED_FACE ( 'NONE', ( #143 ), #92, .T. ) ;
#60 = CIRCLE ( 'NONE', #22, 1.000000000000000000 ) ;
#61 = APPLICATION_CONTEXT ( 'configuration controlled 3d designs of mechanical parts and assemblies' ) ;
#62 = COORDINATED_UNIVERSAL_TIME_OFFSET ( 5, 0, .BEHIND. ) ;
#63 = EDGE_CURVE ( 'NONE', #104, #138, #43, .T. ) ;
#64 = AXIS2_PLACEMENT_3D ( 'NONE', #38, #40, #119 ) ;
#65 = CYLINDRICAL_SURFACE ( 'NONE', #13, 1.000000000000000000 ) ;
#66 = PRODUCT_DEFINITION ( 'UNKNOWN', '', #50, #27 ) ;
#67 = APPROVAL ( #121, 'UNSPECIFIED' ) ;
#68 = DIRECTION ( 'NONE',  ( -0.000000000000000000, -0.000000000000000000, -1.000000000000000000 ) ) ;
#69 = APPLICATION_CONTEXT ( 'configuration controlled 3d designs of mechanical parts and assemblies' ) ;
#70 = PERSON_AND_ORGANIZATION_ROLE ( 'classification_officer' ) ;
#71 = CARTESIAN_POINT ( 'NONE',  ( 1.000000000000000000, 1.224646799147353207E-16, 0.1181102362204724532 ) ) ;
#72 = AXIS2_PLACEMENT_3D ( 'NONE', #7, #79, #77 ) ;
#73 = APPROVAL_DATE_TIME ( #86, #67 ) ;
#74 = SECURITY_CLASSIFICATION ( '', '', #174 ) ;
#75 = FACE_OUTER_BOUND ( 'NONE', #133, .T. ) ;
#76 = CALENDAR_DATE ( 2021, 28, 6 ) ;
#77 = DIRECTION ( 'NONE',  ( -1.000000000000000000, 0.000000000000000000, 0.000000000000000000 ) ) ;
#78 = FACE_OUTER_BOUND ( 'NONE', #19, .T. ) ;
#79 = DIRECTION ( 'NONE',  ( -0.000000000000000000, -0.000000000000000000, -1.000000000000000000 ) ) ;
#80 = PERSON_AND_ORGANIZATION_ROLE ( 'creator' ) ;
#81 = CC_DESIGN_DATE_AND_TIME_ASSIGNMENT ( #46, #108, ( #74 ) ) ;
#82 = APPLICATION_PROTOCOL_DEFINITION ( 'international standard', 'config_control_design', 1994, #61 ) ;
#83 = CARTESIAN_POINT ( 'NONE',  ( 0.000000000000000000, 0.000000000000000000, 0.000000000000000000 ) ) ;
#84 = CC_DESIGN_PERSON_AND_ORGANIZATION_ASSIGNMENT ( #58, #70, ( #74 ) ) ;
#85 = AXIS2_PLACEMENT_3D ( 'NONE', #156, #94, #90 ) ;
#86 = DATE_AND_TIME ( #98, #5 ) ;
#87 = CIRCLE ( 'NONE', #3, 1.000000000000000000 ) ;
#88 = EDGE_CURVE ( 'NONE', #155, #104, #125, .T. ) ;
#89 = DIRECTION ( 'NONE',  ( 0.000000000000000000, 0.000000000000000000, 1.000000000000000000 ) ) ;
#90 = DIRECTION ( 'NONE',  ( 1.000000000000000000, 0.000000000000000000, 0.000000000000000000 ) ) ;
#91 = UNCERTAINTY_MEASURE_WITH_UNIT (LENGTH_MEASURE( 1.000000000000000082E-05 ), #175, 'distance_accuracy_value', 'NONE');
#92 = PLANE ( 'NONE',  #64 ) ;
#93 = CC_DESIGN_APPROVAL ( #178, ( #74 ) ) ;
#94 = DIRECTION ( 'NONE',  ( 0.000000000000000000, 0.000000000000000000, 1.000000000000000000 ) ) ;
#95 = CLOSED_SHELL ( 'NONE', ( #17, #9, #59, #173 ) ) ;
#96 =( LENGTH_UNIT ( ) NAMED_UNIT ( * ) SI_UNIT ( $, .METRE. ) );
#97 = APPROVAL_PERSON_ORGANIZATION ( #167, #67, #147 ) ;
#98 = CALENDAR_DATE ( 2021, 28, 6 ) ;
#99 = FACE_OUTER_BOUND ( 'NONE', #21, .T. ) ;
#100 = DATE_AND_TIME ( #56, #51 ) ;
#101 = APPROVAL_PERSON_ORGANIZATION ( #120, #178, #109 ) ;
#102 = DIRECTION ( 'NONE',  ( 0.000000000000000000, 0.000000000000000000, 1.000000000000000000 ) ) ;
#103 = APPROVAL_DATE_TIME ( #100, #32 ) ;
#104 = VERTEX_POINT ( 'NONE', #144 ) ;
#105 = DIRECTION ( 'NONE',  ( 1.000000000000000000, 0.000000000000000000, 0.000000000000000000 ) ) ;
#106 =( NAMED_UNIT ( * ) SI_UNIT ( $, .STERADIAN. ) SOLID_ANGLE_UNIT ( ) );
#107 = EDGE_CURVE ( 'NONE', #155, #168, #87, .T. ) ;
#108 = DATE_TIME_ROLE ( 'classification_date' ) ;
#109 = APPROVAL_ROLE ( '' ) ;
#110 = MANIFOLD_SOLID_BREP ( 'Boss-Extrude1', #95 ) ;
#111 = LENGTH_MEASURE_WITH_UNIT ( LENGTH_MEASURE( 0.02539999999999999897 ), #96 );
#112 = LOCAL_TIME ( 15, 51, 28.00000000000000000, #149 ) ;
#113 = PRODUCT_DEFINITION_SHAPE ( 'NONE', 'NONE',  #66 ) ;
#114 = CYLINDRICAL_SURFACE ( 'NONE', #72, 1.000000000000000000 ) ;
#115 = AXIS2_PLACEMENT_3D ( 'NONE', #157, #102, #105 ) ;
#116 = ORIENTED_EDGE ( 'NONE', *, *, #88, .F. ) ;
#117 = EDGE_CURVE ( 'NONE', #168, #155, #60, .T. ) ;
#118 = CARTESIAN_POINT ( 'NONE',  ( -1.000000000000000000, 0.000000000000000000, 0.1181102362204724532 ) ) ;
#119 = DIRECTION ( 'NONE',  ( 1.000000000000000000, 0.000000000000000000, -0.000000000000000000 ) ) ;
#120 = PERSON_AND_ORGANIZATION ( #52, #137 ) ;
#121 = APPROVAL_STATUS ( 'not_yet_approved' ) ;
#122 = APPROVAL_STATUS ( 'not_yet_approved' ) ;
#123 = CC_DESIGN_APPROVAL ( #67, ( #50 ) ) ;
#124 = CARTESIAN_POINT ( 'NONE',  ( 0.000000000000000000, 0.000000000000000000, 0.000000000000000000 ) ) ;
#125 = LINE ( 'NONE', #129, #2 ) ;
#126 = APPROVAL_PERSON_ORGANIZATION ( #161, #32, #30 ) ;
#127 = CC_DESIGN_PERSON_AND_ORGANIZATION_ASSIGNMENT ( #16, #80, ( #66 ) ) ;
#128 = SHAPE_DEFINITION_REPRESENTATION ( #113, #171 ) ;
#129 = CARTESIAN_POINT ( 'NONE',  ( 1.000000000000000000, 1.224646799147353207E-16, 0.1181102362204724532 ) ) ;
#130 = ORIENTED_EDGE ( 'NONE', *, *, #63, .T. ) ;
#131 = PERSON_AND_ORGANIZATION_ROLE ( 'design_supplier' ) ;
#132 = PRODUCT_RELATED_PRODUCT_CATEGORY ( 'detail', '', ( #24 ) ) ;
#133 = EDGE_LOOP ( 'NONE', ( #49, #176, #130, #170 ) ) ;
#134 = APPLICATION_PROTOCOL_DEFINITION ( 'international standard', 'config_control_design', 1994, #69 ) ;
#135 = CALENDAR_DATE ( 2021, 28, 6 ) ;
#136 = ORIENTED_EDGE ( 'NONE', *, *, #139, .T. ) ;
#137 = ORGANIZATION ( 'UNSPECIFIED', 'UNSPECIFIED', '' ) ;
#138 = VERTEX_POINT ( 'NONE', #57 ) ;
#139 = EDGE_CURVE ( 'NONE', #138, #104, #26, .T. ) ;
#140 = DIRECTION ( 'NONE',  ( -1.000000000000000000, 0.000000000000000000, 0.000000000000000000 ) ) ;
#141 = DATE_AND_TIME ( #37, #154 ) ;
#142 = PLANE ( 'NONE',  #162 ) ;
#143 = FACE_OUTER_BOUND ( 'NONE', #4, .T. ) ;
#144 = CARTESIAN_POINT ( 'NONE',  ( 1.000000000000000000, 1.224646799147353207E-16, 0.000000000000000000 ) ) ;
#145 = PERSON_AND_ORGANIZATION ( #52, #137 ) ;
#146 = PERSON_AND_ORGANIZATION ( #52, #137 ) ;
#147 = APPROVAL_ROLE ( '' ) ;
#148 = EDGE_CURVE ( 'NONE', #168, #138, #11, .T. ) ;
#149 = COORDINATED_UNIVERSAL_TIME_OFFSET ( 5, 0, .BEHIND. ) ;
#150 = ORIENTED_EDGE ( 'NONE', *, *, #139, .F. ) ;
#151 = ORIENTED_EDGE ( 'NONE', *, *, #63, .F. ) ;
#152 = COORDINATED_UNIVERSAL_TIME_OFFSET ( 5, 0, .BEHIND. ) ;
#153 = CC_DESIGN_APPROVAL ( #32, ( #66 ) ) ;
#154 = LOCAL_TIME ( 15, 51, 28.00000000000000000, #29 ) ;
#155 = VERTEX_POINT ( 'NONE', #71 ) ;
#156 = CARTESIAN_POINT ( 'NONE',  ( 0.000000000000000000, 0.000000000000000000, 0.000000000000000000 ) ) ;
#157 = CARTESIAN_POINT ( 'NONE',  ( 0.000000000000000000, 0.000000000000000000, 0.000000000000000000 ) ) ;
#158 = DIRECTION ( 'NONE',  ( 0.000000000000000000, 0.000000000000000000, 1.000000000000000000 ) ) ;
#159 = MECHANICAL_CONTEXT ( 'NONE', #69, 'mechanical' ) ;
#160 = PERSON_AND_ORGANIZATION_ROLE ( 'creator' ) ;
#161 = PERSON_AND_ORGANIZATION ( #52, #137 ) ;
#162 = AXIS2_PLACEMENT_3D ( 'NONE', #83, #45, #28 ) ;
#163 = VECTOR ( 'NONE', #54, 39.37007874015748143 ) ;
#164 = DIMENSIONAL_EXPONENTS ( 1.000000000000000000, 0.000000000000000000, 0.000000000000000000, 0.000000000000000000, 0.000000000000000000, 0.000000000000000000, 0.000000000000000000 ) ;
#165 = ORIENTED_EDGE ( 'NONE', *, *, #117, .F. ) ;
#166 = CC_DESIGN_PERSON_AND_ORGANIZATION_ASSIGNMENT ( #146, #42, ( #24 ) ) ;
#167 = PERSON_AND_ORGANIZATION ( #52, #137 ) ;
#168 = VERTEX_POINT ( 'NONE', #118 ) ;
#169 = DIRECTION ( 'NONE',  ( -0.000000000000000000, -0.000000000000000000, -1.000000000000000000 ) ) ;
#170 = ORIENTED_EDGE ( 'NONE', *, *, #148, .F. ) ;
#171 = ADVANCED_BREP_SHAPE_REPRESENTATION ( 'Web Model 18363_18363', ( #110, #34 ), #18 ) ;
#172 = LOCAL_TIME ( 15, 51, 28.00000000000000000, #152 ) ;
#173 = ADVANCED_FACE ( 'NONE', ( #78 ), #142, .F. ) ;
#174 = SECURITY_CLASSIFICATION_LEVEL ( 'unclassified' ) ;
#175 =( CONVERSION_BASED_UNIT ( 'INCH', #111 ) LENGTH_UNIT ( ) NAMED_UNIT ( #164 ) );
#176 = ORIENTED_EDGE ( 'NONE', *, *, #88, .T. ) ;
#177 = APPROVAL_STATUS ( 'not_yet_approved' ) ;
#178 = APPROVAL ( #122, 'UNSPECIFIED' ) ;
ENDSEC;
END-ISO-10303-21;
