ISO-10303-21;
HEADER;
FILE_DESCRIPTION (( 'STEP AP203' ),
    '1' );
FILE_NAME ('Web Model 68157_68157.step',
    '2020-10-21T18:39:11',
    ( '' ),
    ( '' ),
    'SwSTEP 2.0',
    'SolidWorks 2018',
    '' );
FILE_SCHEMA (( 'CONFIG_CONTROL_DESIGN' ));
ENDSEC;

DATA;
#1 = DIRECTION ( 'NONE',  ( 1.000000000000000000, 0.0000000000000000000, 0.0000000000000000000 ) ) ;
#2 =( LENGTH_UNIT ( ) NAMED_UNIT ( * ) SI_UNIT ( .MILLI., .METRE. ) );
#3 = DIRECTION ( 'NONE',  ( 1.000000000000000000, 0.0000000000000000000, -0.0000000000000000000 ) ) ;
#4 = CARTESIAN_POINT ( 'NONE',  ( 0.0000000000000000000, 0.0000000000000000000, 3.180000000000000160 ) ) ;
#5 = LOCAL_TIME ( 14, 39, 11.00000000000000000, #160 ) ;
#6 = ORGANIZATION ( 'UNSPECIFIED', 'UNSPECIFIED', '' ) ;
#7 = PRODUCT ( 'Web Model 68157_68157', 'Web Model 68157_68157', '', ( #167 ) ) ;
#8 = ORIENTED_EDGE ( 'NONE', *, *, #93, .F. ) ;
#9 = FACE_OUTER_BOUND ( 'NONE', #125, .T. ) ;
#10 = CC_DESIGN_DATE_AND_TIME_ASSIGNMENT ( #143, #98, ( #145 ) ) ;
#11 = DIRECTION ( 'NONE',  ( 0.0000000000000000000, 0.0000000000000000000, 1.000000000000000000 ) ) ;
#12 = COORDINATED_UNIVERSAL_TIME_OFFSET ( 5, 0, .BEHIND. ) ;
#13 = DIRECTION ( 'NONE',  ( 1.000000000000000000, 0.0000000000000000000, -0.0000000000000000000 ) ) ;
#14 = CIRCLE ( 'NONE', #27, 6.349999999999999645 ) ;
#15 = EDGE_CURVE ( 'NONE', #35, #31, #28, .T. ) ;
#16 = DIRECTION ( 'NONE',  ( 0.0000000000000000000, 0.0000000000000000000, 1.000000000000000000 ) ) ;
#17 = CC_DESIGN_APPROVAL ( #84, ( #50 ) ) ;
#18 = APPROVAL_DATE_TIME ( #94, #23 ) ;
#19 = DIRECTION ( 'NONE',  ( -1.000000000000000000, 0.0000000000000000000, 0.0000000000000000000 ) ) ;
#20 = CC_DESIGN_PERSON_AND_ORGANIZATION_ASSIGNMENT ( #67, #47, ( #79 ) ) ;
#21 = PERSON_AND_ORGANIZATION ( #52, #6 ) ;
#22 = CALENDAR_DATE ( 2020, 21, 10 ) ;
#23 = APPROVAL ( #115, 'UNSPECIFIED' ) ;
#24 = CIRCLE ( 'NONE', #122, 6.349999999999999645 ) ;
#25 = PERSON_AND_ORGANIZATION ( #52, #6 ) ;
#26 = CC_DESIGN_PERSON_AND_ORGANIZATION_ASSIGNMENT ( #25, #73, ( #145 ) ) ;
#27 = AXIS2_PLACEMENT_3D ( 'NONE', #99, #87, #132 ) ;
#28 = LINE ( 'NONE', #55, #38 ) ;
#29 =( GEOMETRIC_REPRESENTATION_CONTEXT ( 3 ) GLOBAL_UNCERTAINTY_ASSIGNED_CONTEXT ( ( #91 ) ) GLOBAL_UNIT_ASSIGNED_CONTEXT ( ( #2, #108, #37 ) ) REPRESENTATION_CONTEXT ( 'NONE', 'WORKASPACE' ) );
#30 = ADVANCED_FACE ( 'NONE', ( #66 ), #127, .F. ) ;
#31 = VERTEX_POINT ( 'NONE', #81 ) ;
#32 = DIRECTION ( 'NONE',  ( 0.0000000000000000000, 0.0000000000000000000, 1.000000000000000000 ) ) ;
#33 = COORDINATED_UNIVERSAL_TIME_OFFSET ( 5, 0, .BEHIND. ) ;
#34 = CARTESIAN_POINT ( 'NONE',  ( 0.0000000000000000000, 0.0000000000000000000, 3.180000000000000160 ) ) ;
#35 = VERTEX_POINT ( 'NONE', #105 ) ;
#36 = PERSON_AND_ORGANIZATION ( #52, #6 ) ;
#37 =( NAMED_UNIT ( * ) SI_UNIT ( $, .STERADIAN. ) SOLID_ANGLE_UNIT ( ) );
#38 = VECTOR ( 'NONE', #56, 1000.000000000000000 ) ;
#39 = ORIENTED_EDGE ( 'NONE', *, *, #112, .F. ) ;
#40 = CALENDAR_DATE ( 2020, 21, 10 ) ;
#41 = PRODUCT_RELATED_PRODUCT_CATEGORY ( 'detail', '', ( #7 ) ) ;
#42 = DATE_AND_TIME ( #159, #82 ) ;
#43 = LOCAL_TIME ( 14, 39, 11.00000000000000000, #140 ) ;
#44 = AXIS2_PLACEMENT_3D ( 'NONE', #109, #97, #85 ) ;
#45 = DIRECTION ( 'NONE',  ( -1.000000000000000000, 0.0000000000000000000, 0.0000000000000000000 ) ) ;
#46 = DIRECTION ( 'NONE',  ( 1.000000000000000000, 0.0000000000000000000, 0.0000000000000000000 ) ) ;
#47 = PERSON_AND_ORGANIZATION_ROLE ( 'creator' ) ;
#48 = CC_DESIGN_SECURITY_CLASSIFICATION ( #50, ( #79 ) ) ;
#49 = DIRECTION ( 'NONE',  ( -0.0000000000000000000, -0.0000000000000000000, -1.000000000000000000 ) ) ;
#50 = SECURITY_CLASSIFICATION ( '', '', #171 ) ;
#51 = ORIENTED_EDGE ( 'NONE', *, *, #112, .T. ) ;
#52 = PERSON ( 'UNSPECIFIED', 'UNSPECIFIED', 'UNSPECIFIED', ('UNSPECIFIED'), ('UNSPECIFIED'), ('UNSPECIFIED') ) ;
#53 = CC_DESIGN_APPROVAL ( #76, ( #79 ) ) ;
#54 = ORIENTED_EDGE ( 'NONE', *, *, #101, .T. ) ;
#55 = CARTESIAN_POINT ( 'NONE',  ( -6.349999999999999645, 0.0000000000000000000, 3.180000000000000160 ) ) ;
#56 = DIRECTION ( 'NONE',  ( -0.0000000000000000000, -0.0000000000000000000, -1.000000000000000000 ) ) ;
#57 = DATE_AND_TIME ( #126, #72 ) ;
#58 = CARTESIAN_POINT ( 'NONE',  ( 0.0000000000000000000, 0.0000000000000000000, 0.0000000000000000000 ) ) ;
#59 = CYLINDRICAL_SURFACE ( 'NONE', #141, 6.349999999999999645 ) ;
#60 = APPLICATION_CONTEXT ( 'configuration controlled 3d designs of mechanical parts and assemblies' ) ;
#61 = DIRECTION ( 'NONE',  ( -0.0000000000000000000, -0.0000000000000000000, -1.000000000000000000 ) ) ;
#62 = CC_DESIGN_PERSON_AND_ORGANIZATION_ASSIGNMENT ( #21, #151, ( #7 ) ) ;
#63 = PERSON_AND_ORGANIZATION ( #52, #6 ) ;
#64 = ORIENTED_EDGE ( 'NONE', *, *, #172, .F. ) ;
#65 = AXIS2_PLACEMENT_3D ( 'NONE', #34, #49, #45 ) ;
#66 = FACE_OUTER_BOUND ( 'NONE', #169, .T. ) ;
#67 = PERSON_AND_ORGANIZATION ( #52, #6 ) ;
#68 = ORIENTED_EDGE ( 'NONE', *, *, #93, .T. ) ;
#69 = CARTESIAN_POINT ( 'NONE',  ( 0.0000000000000000000, 0.0000000000000000000, 0.0000000000000000000 ) ) ;
#70 = CARTESIAN_POINT ( 'NONE',  ( 0.0000000000000000000, 0.0000000000000000000, 0.0000000000000000000 ) ) ;
#71 = DIRECTION ( 'NONE',  ( 1.000000000000000000, 0.0000000000000000000, 0.0000000000000000000 ) ) ;
#72 = LOCAL_TIME ( 14, 39, 11.00000000000000000, #104 ) ;
#73 = PERSON_AND_ORGANIZATION_ROLE ( 'creator' ) ;
#74 = CC_DESIGN_PERSON_AND_ORGANIZATION_ASSIGNMENT ( #36, #168, ( #79 ) ) ;
#75 = APPROVAL_ROLE ( '' ) ;
#76 = APPROVAL ( #118, 'UNSPECIFIED' ) ;
#77 = APPROVAL_DATE_TIME ( #57, #84 ) ;
#78 = CARTESIAN_POINT ( 'NONE',  ( 6.349999999999999645, 7.776507174585690191E-16, 3.180000000000000160 ) ) ;
#79 = PRODUCT_DEFINITION_FORMATION_WITH_SPECIFIED_SOURCE ( 'ANY', '', #7, .NOT_KNOWN. ) ;
#80 = CARTESIAN_POINT ( 'NONE',  ( 0.0000000000000000000, 0.0000000000000000000, 3.180000000000000160 ) ) ;
#81 = CARTESIAN_POINT ( 'NONE',  ( -6.349999999999999645, 0.0000000000000000000, 0.0000000000000000000 ) ) ;
#82 = LOCAL_TIME ( 14, 39, 11.00000000000000000, #33 ) ;
#83 = APPROVAL_ROLE ( '' ) ;
#84 = APPROVAL ( #110, 'UNSPECIFIED' ) ;
#85 = DIRECTION ( 'NONE',  ( 1.000000000000000000, 0.0000000000000000000, 0.0000000000000000000 ) ) ;
#86 = CARTESIAN_POINT ( 'NONE',  ( 0.0000000000000000000, 0.0000000000000000000, 3.180000000000000160 ) ) ;
#87 = DIRECTION ( 'NONE',  ( 0.0000000000000000000, 0.0000000000000000000, 1.000000000000000000 ) ) ;
#88 = DESIGN_CONTEXT ( 'detailed design', #149, 'design' ) ;
#89 = DATE_TIME_ROLE ( 'classification_date' ) ;
#90 = ORIENTED_EDGE ( 'NONE', *, *, #15, .T. ) ;
#91 = UNCERTAINTY_MEASURE_WITH_UNIT (LENGTH_MEASURE( 1.000000000000000082E-05 ), #2, 'distance_accuracy_value', 'NONE');
#92 = ORIENTED_EDGE ( 'NONE', *, *, #15, .F. ) ;
#93 = EDGE_CURVE ( 'NONE', #162, #31, #166, .T. ) ;
#94 = DATE_AND_TIME ( #40, #43 ) ;
#95 = EDGE_LOOP ( 'NONE', ( #103, #51, #68, #92 ) ) ;
#96 = DIRECTION ( 'NONE',  ( 0.0000000000000000000, 0.0000000000000000000, 1.000000000000000000 ) ) ;
#97 = DIRECTION ( 'NONE',  ( 0.0000000000000000000, 0.0000000000000000000, 1.000000000000000000 ) ) ;
#98 = DATE_TIME_ROLE ( 'creation_date' ) ;
#99 = CARTESIAN_POINT ( 'NONE',  ( 0.0000000000000000000, 0.0000000000000000000, 0.0000000000000000000 ) ) ;
#100 = VECTOR ( 'NONE', #128, 1000.000000000000000 ) ;
#101 = EDGE_CURVE ( 'NONE', #131, #35, #24, .T. ) ;
#102 = ORIENTED_EDGE ( 'NONE', *, *, #121, .F. ) ;
#103 = ORIENTED_EDGE ( 'NONE', *, *, #101, .F. ) ;
#104 = COORDINATED_UNIVERSAL_TIME_OFFSET ( 5, 0, .BEHIND. ) ;
#105 = CARTESIAN_POINT ( 'NONE',  ( -6.349999999999999645, 0.0000000000000000000, 3.180000000000000160 ) ) ;
#106 = CYLINDRICAL_SURFACE ( 'NONE', #65, 6.349999999999999645 ) ;
#107 = CALENDAR_DATE ( 2020, 21, 10 ) ;
#108 =( NAMED_UNIT ( * ) PLANE_ANGLE_UNIT ( ) SI_UNIT ( $, .RADIAN. ) );
#109 = CARTESIAN_POINT ( 'NONE',  ( 0.0000000000000000000, 0.0000000000000000000, 3.180000000000000160 ) ) ;
#110 = APPROVAL_STATUS ( 'not_yet_approved' ) ;
#111 = FACE_OUTER_BOUND ( 'NONE', #173, .T. ) ;
#112 = EDGE_CURVE ( 'NONE', #131, #162, #157, .T. ) ;
#113 = APPROVAL_PERSON_ORGANIZATION ( #117, #76, #163 ) ;
#114 = ADVANCED_FACE ( 'NONE', ( #144 ), #59, .T. ) ;
#115 = APPROVAL_STATUS ( 'not_yet_approved' ) ;
#116 = PRODUCT_DEFINITION_SHAPE ( 'NONE', 'NONE',  #145 ) ;
#117 = PERSON_AND_ORGANIZATION ( #52, #6 ) ;
#118 = APPROVAL_STATUS ( 'not_yet_approved' ) ;
#119 = DIRECTION ( 'NONE',  ( 0.0000000000000000000, 0.0000000000000000000, 1.000000000000000000 ) ) ;
#120 = PERSON_AND_ORGANIZATION ( #52, #6 ) ;
#121 = EDGE_CURVE ( 'NONE', #31, #162, #14, .T. ) ;
#122 = AXIS2_PLACEMENT_3D ( 'NONE', #80, #32, #46 ) ;
#123 = ORIENTED_EDGE ( 'NONE', *, *, #172, .T. ) ;
#124 = ADVANCED_FACE ( 'NONE', ( #111 ), #148, .T. ) ;
#125 = EDGE_LOOP ( 'NONE', ( #39, #64, #90, #135 ) ) ;
#126 = CALENDAR_DATE ( 2020, 21, 10 ) ;
#127 = PLANE ( 'NONE',  #130 ) ;
#128 = DIRECTION ( 'NONE',  ( -0.0000000000000000000, -0.0000000000000000000, -1.000000000000000000 ) ) ;
#129 = PERSON_AND_ORGANIZATION ( #52, #6 ) ;
#130 = AXIS2_PLACEMENT_3D ( 'NONE', #70, #96, #13 ) ;
#131 = VERTEX_POINT ( 'NONE', #134 ) ;
#132 = DIRECTION ( 'NONE',  ( 1.000000000000000000, 0.0000000000000000000, 0.0000000000000000000 ) ) ;
#133 = SHAPE_DEFINITION_REPRESENTATION ( #116, #137 ) ;
#134 = CARTESIAN_POINT ( 'NONE',  ( 6.349999999999999645, 7.776507174585690191E-16, 3.180000000000000160 ) ) ;
#135 = ORIENTED_EDGE ( 'NONE', *, *, #121, .T. ) ;
#136 = APPLICATION_PROTOCOL_DEFINITION ( 'international standard', 'config_control_design', 1994, #149 ) ;
#137 = ADVANCED_BREP_SHAPE_REPRESENTATION ( 'Web Model 68157_68157', ( #142, #161 ), #29 ) ;
#138 = CC_DESIGN_APPROVAL ( #23, ( #145 ) ) ;
#139 = PERSON_AND_ORGANIZATION_ROLE ( 'classification_officer' ) ;
#140 = COORDINATED_UNIVERSAL_TIME_OFFSET ( 5, 0, .BEHIND. ) ;
#141 = AXIS2_PLACEMENT_3D ( 'NONE', #86, #61, #19 ) ;
#142 = MANIFOLD_SOLID_BREP ( 'Boss-Extrude1', #155 ) ;
#143 = DATE_AND_TIME ( #22, #5 ) ;
#144 = FACE_OUTER_BOUND ( 'NONE', #95, .T. ) ;
#145 = PRODUCT_DEFINITION ( 'UNKNOWN', '', #79, #88 ) ;
#146 = APPROVAL_PERSON_ORGANIZATION ( #120, #84, #75 ) ;
#147 = APPLICATION_PROTOCOL_DEFINITION ( 'international standard', 'config_control_design', 1994, #60 ) ;
#148 = PLANE ( 'NONE',  #154 ) ;
#149 = APPLICATION_CONTEXT ( 'configuration controlled 3d designs of mechanical parts and assemblies' ) ;
#150 = LOCAL_TIME ( 14, 39, 11.00000000000000000, #12 ) ;
#151 = PERSON_AND_ORGANIZATION_ROLE ( 'design_owner' ) ;
#152 = CIRCLE ( 'NONE', #44, 6.349999999999999645 ) ;
#153 = DATE_AND_TIME ( #107, #150 ) ;
#154 = AXIS2_PLACEMENT_3D ( 'NONE', #4, #119, #3 ) ;
#155 = CLOSED_SHELL ( 'NONE', ( #114, #158, #124, #30 ) ) ;
#156 = APPROVAL_PERSON_ORGANIZATION ( #129, #23, #83 ) ;
#157 = LINE ( 'NONE', #78, #100 ) ;
#158 = ADVANCED_FACE ( 'NONE', ( #9 ), #106, .T. ) ;
#159 = CALENDAR_DATE ( 2020, 21, 10 ) ;
#160 = COORDINATED_UNIVERSAL_TIME_OFFSET ( 5, 0, .BEHIND. ) ;
#161 = AXIS2_PLACEMENT_3D ( 'NONE', #58, #16, #71 ) ;
#162 = VERTEX_POINT ( 'NONE', #164 ) ;
#163 = APPROVAL_ROLE ( '' ) ;
#164 = CARTESIAN_POINT ( 'NONE',  ( 6.349999999999999645, 7.776507174585690191E-16, 0.0000000000000000000 ) ) ;
#165 = CC_DESIGN_DATE_AND_TIME_ASSIGNMENT ( #42, #89, ( #50 ) ) ;
#166 = CIRCLE ( 'NONE', #175, 6.349999999999999645 ) ;
#167 = MECHANICAL_CONTEXT ( 'NONE', #60, 'mechanical' ) ;
#168 = PERSON_AND_ORGANIZATION_ROLE ( 'design_supplier' ) ;
#169 = EDGE_LOOP ( 'NONE', ( #102, #8 ) ) ;
#170 = APPROVAL_DATE_TIME ( #153, #76 ) ;
#171 = SECURITY_CLASSIFICATION_LEVEL ( 'unclassified' ) ;
#172 = EDGE_CURVE ( 'NONE', #35, #131, #152, .T. ) ;
#173 = EDGE_LOOP ( 'NONE', ( #123, #54 ) ) ;
#174 = CC_DESIGN_PERSON_AND_ORGANIZATION_ASSIGNMENT ( #63, #139, ( #50 ) ) ;
#175 = AXIS2_PLACEMENT_3D ( 'NONE', #69, #11, #1 ) ;
ENDSEC;
END-ISO-10303-21;
