ISO-10303-21;
HEADER;
FILE_DESCRIPTION (( 'STEP AP203' ),
    '1' );
FILE_NAME ('Web Model 45570_39302.step',
    '2019-01-07T15:32:59',
    ( '' ),
    ( '' ),
    'SwSTEP 2.0',
    'SolidWorks 2016',
    '' );
FILE_SCHEMA (( 'CONFIG_CONTROL_DESIGN' ));
ENDSEC;

DATA;
#1 =( GEOMETRIC_REPRESENTATION_CONTEXT ( 3 ) GLOBAL_UNCERTAINTY_ASSIGNED_CONTEXT ( ( #175 ) ) GLOBAL_UNIT_ASSIGNED_CONTEXT ( ( #133, #91, #7 ) ) REPRESENTATION_CONTEXT ( 'NONE', 'WORKASPACE' ) );
#2 = AXIS2_PLACEMENT_3D ( 'NONE', #118, #144, #10 ) ;
#3 = PERSON_AND_ORGANIZATION ( #84, #82 ) ;
#4 = VECTOR ( 'NONE', #72, 1000.000000000000000 ) ;
#5 = FACE_OUTER_BOUND ( 'NONE', #145, .T. ) ;
#6 = DIRECTION ( 'NONE',  ( 0.0000000000000000000, 0.0000000000000000000, 1.000000000000000000 ) ) ;
#7 =( NAMED_UNIT ( * ) SI_UNIT ( $, .STERADIAN. ) SOLID_ANGLE_UNIT ( ) );
#8 = ORIENTED_EDGE ( 'NONE', *, *, #28, .T. ) ;
#9 = CC_DESIGN_PERSON_AND_ORGANIZATION_ASSIGNMENT ( #97, #71, ( #162 ) ) ;
#10 = DIRECTION ( 'NONE',  ( 1.000000000000000000, 0.0000000000000000000, 0.0000000000000000000 ) ) ;
#11 = MECHANICAL_CONTEXT ( 'NONE', #63, 'mechanical' ) ;
#12 = PERSON_AND_ORGANIZATION_ROLE ( 'creator' ) ;
#13 = PERSON_AND_ORGANIZATION ( #84, #82 ) ;
#14 = CC_DESIGN_SECURITY_CLASSIFICATION ( #24, ( #147 ) ) ;
#15 = EDGE_CURVE ( 'NONE', #170, #34, #117, .T. ) ;
#16 = PERSON_AND_ORGANIZATION ( #84, #82 ) ;
#17 = CC_DESIGN_PERSON_AND_ORGANIZATION_ASSIGNMENT ( #124, #75, ( #147 ) ) ;
#18 = SHAPE_DEFINITION_REPRESENTATION ( #128, #78 ) ;
#19 = APPROVAL_STATUS ( 'not_yet_approved' ) ;
#20 = APPROVAL_ROLE ( '' ) ;
#21 = DIRECTION ( 'NONE',  ( -0.0000000000000000000, -0.0000000000000000000, -1.000000000000000000 ) ) ;
#22 = APPLICATION_PROTOCOL_DEFINITION ( 'international standard', 'config_control_design', 1994, #171 ) ;
#23 = LOCAL_TIME ( 10, 32, 59.00000000000000000, #69 ) ;
#24 = SECURITY_CLASSIFICATION ( '', '', #108 ) ;
#25 = PERSON_AND_ORGANIZATION_ROLE ( 'classification_officer' ) ;
#26 = DATE_TIME_ROLE ( 'classification_date' ) ;
#27 = DATE_AND_TIME ( #123, #141 ) ;
#28 = EDGE_CURVE ( 'NONE', #111, #152, #79, .T. ) ;
#29 = FACE_OUTER_BOUND ( 'NONE', #142, .T. ) ;
#30 = ORIENTED_EDGE ( 'NONE', *, *, #15, .T. ) ;
#31 = LOCAL_TIME ( 10, 32, 59.00000000000000000, #114 ) ;
#32 = ORIENTED_EDGE ( 'NONE', *, *, #159, .T. ) ;
#33 = CC_DESIGN_PERSON_AND_ORGANIZATION_ASSIGNMENT ( #13, #25, ( #24 ) ) ;
#34 = VERTEX_POINT ( 'NONE', #86 ) ;
#35 = AXIS2_PLACEMENT_3D ( 'NONE', #105, #6, #174 ) ;
#36 = DIRECTION ( 'NONE',  ( 0.0000000000000000000, 0.0000000000000000000, 1.000000000000000000 ) ) ;
#37 = CARTESIAN_POINT ( 'NONE',  ( 0.0000000000000000000, 0.0000000000000000000, 2.000000000000000000 ) ) ;
#38 = CARTESIAN_POINT ( 'NONE',  ( -20.00000000000000000, 0.0000000000000000000, 2.000000000000000000 ) ) ;
#39 = ORIENTED_EDGE ( 'NONE', *, *, #28, .F. ) ;
#40 = AXIS2_PLACEMENT_3D ( 'NONE', #126, #70, #157 ) ;
#41 = ORIENTED_EDGE ( 'NONE', *, *, #166, .F. ) ;
#42 = MANIFOLD_SOLID_BREP ( 'Boss-Extrude1', #138 ) ;
#43 = CC_DESIGN_APPROVAL ( #140, ( #129 ) ) ;
#44 = APPROVAL_PERSON_ORGANIZATION ( #158, #62, #20 ) ;
#45 = ORIENTED_EDGE ( 'NONE', *, *, #80, .F. ) ;
#46 = CARTESIAN_POINT ( 'NONE',  ( 20.00000000000000000, 2.449293598294706500E-015, 2.000000000000000000 ) ) ;
#47 = DATE_AND_TIME ( #116, #23 ) ;
#48 = DIRECTION ( 'NONE',  ( -1.000000000000000000, 0.0000000000000000000, 0.0000000000000000000 ) ) ;
#49 = APPLICATION_PROTOCOL_DEFINITION ( 'international standard', 'config_control_design', 1994, #63 ) ;
#50 = LOCAL_TIME ( 10, 32, 59.00000000000000000, #150 ) ;
#51 = PLANE ( 'NONE',  #93 ) ;
#52 = LINE ( 'NONE', #121, #95 ) ;
#53 = APPROVAL_ROLE ( '' ) ;
#54 = CC_DESIGN_DATE_AND_TIME_ASSIGNMENT ( #81, #104, ( #129 ) ) ;
#55 = ORIENTED_EDGE ( 'NONE', *, *, #166, .T. ) ;
#56 = AXIS2_PLACEMENT_3D ( 'NONE', #155, #102, #146 ) ;
#57 = PERSON_AND_ORGANIZATION ( #84, #82 ) ;
#58 = COORDINATED_UNIVERSAL_TIME_OFFSET ( 5, 0, .BEHIND. ) ;
#59 = ORIENTED_EDGE ( 'NONE', *, *, #15, .F. ) ;
#60 = CC_DESIGN_APPROVAL ( #88, ( #24 ) ) ;
#61 = CARTESIAN_POINT ( 'NONE',  ( 20.00000000000000000, 2.449293598294706500E-015, 2.000000000000000000 ) ) ;
#62 = APPROVAL ( #143, 'UNSPECIFIED' ) ;
#63 = APPLICATION_CONTEXT ( 'configuration controlled 3d designs of mechanical parts and assemblies' ) ;
#64 = LINE ( 'NONE', #46, #4 ) ;
#65 = ORIENTED_EDGE ( 'NONE', *, *, #169, .F. ) ;
#66 = DIRECTION ( 'NONE',  ( 0.0000000000000000000, 0.0000000000000000000, 1.000000000000000000 ) ) ;
#67 = AXIS2_PLACEMENT_3D ( 'NONE', #37, #131, #48 ) ;
#68 = CALENDAR_DATE ( 2019, 7, 1 ) ;
#69 = COORDINATED_UNIVERSAL_TIME_OFFSET ( 5, 0, .BEHIND. ) ;
#70 = DIRECTION ( 'NONE',  ( 0.0000000000000000000, 0.0000000000000000000, 1.000000000000000000 ) ) ;
#71 = PERSON_AND_ORGANIZATION_ROLE ( 'design_owner' ) ;
#72 = DIRECTION ( 'NONE',  ( -0.0000000000000000000, -0.0000000000000000000, -1.000000000000000000 ) ) ;
#73 = ORIENTED_EDGE ( 'NONE', *, *, #169, .T. ) ;
#74 = DIRECTION ( 'NONE',  ( 1.000000000000000000, 0.0000000000000000000, -0.0000000000000000000 ) ) ;
#75 = PERSON_AND_ORGANIZATION_ROLE ( 'design_supplier' ) ;
#76 = PRODUCT_RELATED_PRODUCT_CATEGORY ( 'detail', '', ( #162 ) ) ;
#77 = CC_DESIGN_DATE_AND_TIME_ASSIGNMENT ( #110, #26, ( #24 ) ) ;
#78 = ADVANCED_BREP_SHAPE_REPRESENTATION ( 'Web Model 45570_39302', ( #42, #139 ), #1 ) ;
#79 = CIRCLE ( 'NONE', #35, 20.00000000000000000 ) ;
#80 = EDGE_CURVE ( 'NONE', #152, #111, #113, .T. ) ;
#81 = DATE_AND_TIME ( #90, #31 ) ;
#82 = ORGANIZATION ( 'UNSPECIFIED', 'UNSPECIFIED', '' ) ;
#83 = EDGE_LOOP ( 'NONE', ( #8, #101 ) ) ;
#84 = PERSON ( 'UNSPECIFIED', 'UNSPECIFIED', 'UNSPECIFIED', ('UNSPECIFIED'), ('UNSPECIFIED'), ('UNSPECIFIED') ) ;
#85 = CALENDAR_DATE ( 2019, 7, 1 ) ;
#86 = CARTESIAN_POINT ( 'NONE',  ( -20.00000000000000000, 0.0000000000000000000, -2.000000000000000000 ) ) ;
#87 = COORDINATED_UNIVERSAL_TIME_OFFSET ( 5, 0, .BEHIND. ) ;
#88 = APPROVAL ( #122, 'UNSPECIFIED' ) ;
#89 = PERSON_AND_ORGANIZATION_ROLE ( 'creator' ) ;
#90 = CALENDAR_DATE ( 2019, 7, 1 ) ;
#91 =( NAMED_UNIT ( * ) PLANE_ANGLE_UNIT ( ) SI_UNIT ( $, .RADIAN. ) );
#92 = CARTESIAN_POINT ( 'NONE',  ( 0.0000000000000000000, 0.0000000000000000000, 0.0000000000000000000 ) ) ;
#93 = AXIS2_PLACEMENT_3D ( 'NONE', #94, #66, #135 ) ;
#94 = CARTESIAN_POINT ( 'NONE',  ( 0.0000000000000000000, 0.0000000000000000000, -2.000000000000000000 ) ) ;
#95 = VECTOR ( 'NONE', #21, 1000.000000000000000 ) ;
#96 = APPROVAL_DATE_TIME ( #134, #140 ) ;
#97 = PERSON_AND_ORGANIZATION ( #84, #82 ) ;
#98 = ADVANCED_FACE ( 'NONE', ( #5 ), #148, .T. ) ;
#99 = ADVANCED_FACE ( 'NONE', ( #109 ), #173, .T. ) ;
#100 = CIRCLE ( 'NONE', #119, 20.00000000000000000 ) ;
#101 = ORIENTED_EDGE ( 'NONE', *, *, #80, .T. ) ;
#102 = DIRECTION ( 'NONE',  ( -0.0000000000000000000, -0.0000000000000000000, -1.000000000000000000 ) ) ;
#103 = DIRECTION ( 'NONE',  ( 1.000000000000000000, 0.0000000000000000000, 0.0000000000000000000 ) ) ;
#104 = DATE_TIME_ROLE ( 'creation_date' ) ;
#105 = CARTESIAN_POINT ( 'NONE',  ( 0.0000000000000000000, 0.0000000000000000000, 2.000000000000000000 ) ) ;
#106 = ORIENTED_EDGE ( 'NONE', *, *, #159, .F. ) ;
#107 = DIRECTION ( 'NONE',  ( 1.000000000000000000, 0.0000000000000000000, 0.0000000000000000000 ) ) ;
#108 = SECURITY_CLASSIFICATION_LEVEL ( 'unclassified' ) ;
#109 = FACE_OUTER_BOUND ( 'NONE', #83, .T. ) ;
#110 = DATE_AND_TIME ( #85, #156 ) ;
#111 = VERTEX_POINT ( 'NONE', #38 ) ;
#112 = ADVANCED_FACE ( 'NONE', ( #29 ), #130, .T. ) ;
#113 = CIRCLE ( 'NONE', #2, 20.00000000000000000 ) ;
#114 = COORDINATED_UNIVERSAL_TIME_OFFSET ( 5, 0, .BEHIND. ) ;
#115 = EDGE_LOOP ( 'NONE', ( #41, #59 ) ) ;
#116 = CALENDAR_DATE ( 2019, 7, 1 ) ;
#117 = CIRCLE ( 'NONE', #40, 20.00000000000000000 ) ;
#118 = CARTESIAN_POINT ( 'NONE',  ( 0.0000000000000000000, 0.0000000000000000000, 2.000000000000000000 ) ) ;
#119 = AXIS2_PLACEMENT_3D ( 'NONE', #136, #36, #103 ) ;
#120 = APPROVAL_ROLE ( '' ) ;
#121 = CARTESIAN_POINT ( 'NONE',  ( -20.00000000000000000, 0.0000000000000000000, 2.000000000000000000 ) ) ;
#122 = APPROVAL_STATUS ( 'not_yet_approved' ) ;
#123 = CALENDAR_DATE ( 2019, 7, 1 ) ;
#124 = PERSON_AND_ORGANIZATION ( #84, #82 ) ;
#125 = AXIS2_PLACEMENT_3D ( 'NONE', #172, #132, #74 ) ;
#126 = CARTESIAN_POINT ( 'NONE',  ( 0.0000000000000000000, 0.0000000000000000000, -2.000000000000000000 ) ) ;
#127 = APPROVAL_DATE_TIME ( #47, #88 ) ;
#128 = PRODUCT_DEFINITION_SHAPE ( 'NONE', 'NONE',  #129 ) ;
#129 = PRODUCT_DEFINITION ( 'UNKNOWN', '', #147, #165 ) ;
#130 = CYLINDRICAL_SURFACE ( 'NONE', #67, 20.00000000000000000 ) ;
#131 = DIRECTION ( 'NONE',  ( -0.0000000000000000000, -0.0000000000000000000, -1.000000000000000000 ) ) ;
#132 = DIRECTION ( 'NONE',  ( 0.0000000000000000000, 0.0000000000000000000, 1.000000000000000000 ) ) ;
#133 =( LENGTH_UNIT ( ) NAMED_UNIT ( * ) SI_UNIT ( .MILLI., .METRE. ) );
#134 = DATE_AND_TIME ( #68, #50 ) ;
#135 = DIRECTION ( 'NONE',  ( 1.000000000000000000, 0.0000000000000000000, -0.0000000000000000000 ) ) ;
#136 = CARTESIAN_POINT ( 'NONE',  ( 0.0000000000000000000, 0.0000000000000000000, -2.000000000000000000 ) ) ;
#137 = APPROVAL_DATE_TIME ( #27, #62 ) ;
#138 = CLOSED_SHELL ( 'NONE', ( #112, #98, #99, #167 ) ) ;
#139 = AXIS2_PLACEMENT_3D ( 'NONE', #92, #160, #107 ) ;
#140 = APPROVAL ( #19, 'UNSPECIFIED' ) ;
#141 = LOCAL_TIME ( 10, 32, 59.00000000000000000, #58 ) ;
#142 = EDGE_LOOP ( 'NONE', ( #45, #73, #30, #106 ) ) ;
#143 = APPROVAL_STATUS ( 'not_yet_approved' ) ;
#144 = DIRECTION ( 'NONE',  ( 0.0000000000000000000, 0.0000000000000000000, 1.000000000000000000 ) ) ;
#145 = EDGE_LOOP ( 'NONE', ( #65, #39, #32, #55 ) ) ;
#146 = DIRECTION ( 'NONE',  ( -1.000000000000000000, 0.0000000000000000000, 0.0000000000000000000 ) ) ;
#147 = PRODUCT_DEFINITION_FORMATION_WITH_SPECIFIED_SOURCE ( 'ANY', '', #162, .NOT_KNOWN. ) ;
#148 = CYLINDRICAL_SURFACE ( 'NONE', #56, 20.00000000000000000 ) ;
#149 = CC_DESIGN_PERSON_AND_ORGANIZATION_ASSIGNMENT ( #57, #89, ( #129 ) ) ;
#150 = COORDINATED_UNIVERSAL_TIME_OFFSET ( 5, 0, .BEHIND. ) ;
#151 = PERSON_AND_ORGANIZATION ( #84, #82 ) ;
#152 = VERTEX_POINT ( 'NONE', #61 ) ;
#153 = APPROVAL_PERSON_ORGANIZATION ( #151, #88, #53 ) ;
#154 = CC_DESIGN_APPROVAL ( #62, ( #147 ) ) ;
#155 = CARTESIAN_POINT ( 'NONE',  ( 0.0000000000000000000, 0.0000000000000000000, 2.000000000000000000 ) ) ;
#156 = LOCAL_TIME ( 10, 32, 59.00000000000000000, #87 ) ;
#157 = DIRECTION ( 'NONE',  ( 1.000000000000000000, 0.0000000000000000000, 0.0000000000000000000 ) ) ;
#158 = PERSON_AND_ORGANIZATION ( #84, #82 ) ;
#159 = EDGE_CURVE ( 'NONE', #111, #34, #52, .T. ) ;
#160 = DIRECTION ( 'NONE',  ( 0.0000000000000000000, 0.0000000000000000000, 1.000000000000000000 ) ) ;
#161 = CARTESIAN_POINT ( 'NONE',  ( 20.00000000000000000, 2.449293598294706500E-015, -2.000000000000000000 ) ) ;
#162 = PRODUCT ( 'Web Model 45570_39302', 'Web Model 45570_39302', '', ( #11 ) ) ;
#163 = APPROVAL_PERSON_ORGANIZATION ( #3, #140, #120 ) ;
#164 = CC_DESIGN_PERSON_AND_ORGANIZATION_ASSIGNMENT ( #16, #12, ( #147 ) ) ;
#165 = DESIGN_CONTEXT ( 'detailed design', #171, 'design' ) ;
#166 = EDGE_CURVE ( 'NONE', #34, #170, #100, .T. ) ;
#167 = ADVANCED_FACE ( 'NONE', ( #168 ), #51, .F. ) ;
#168 = FACE_OUTER_BOUND ( 'NONE', #115, .T. ) ;
#169 = EDGE_CURVE ( 'NONE', #152, #170, #64, .T. ) ;
#170 = VERTEX_POINT ( 'NONE', #161 ) ;
#171 = APPLICATION_CONTEXT ( 'configuration controlled 3d designs of mechanical parts and assemblies' ) ;
#172 = CARTESIAN_POINT ( 'NONE',  ( 0.0000000000000000000, 0.0000000000000000000, 2.000000000000000000 ) ) ;
#173 = PLANE ( 'NONE',  #125 ) ;
#174 = DIRECTION ( 'NONE',  ( 1.000000000000000000, 0.0000000000000000000, 0.0000000000000000000 ) ) ;
#175 = UNCERTAINTY_MEASURE_WITH_UNIT (LENGTH_MEASURE( 1.000000000000000100E-005 ), #133, 'distance_accuracy_value', 'NONE');
ENDSEC;
END-ISO-10303-21;
