ISO-10303-21;
HEADER;
FILE_DESCRIPTION (( 'STEP AP203' ),
    '1' );
FILE_NAME ('Web Model 36252_36252.step',
    '2020-10-21T18:16:19',
    ( '' ),
    ( '' ),
    'SwSTEP 2.0',
    'SolidWorks 2018',
    '' );
FILE_SCHEMA (( 'CONFIG_CONTROL_DESIGN' ));
ENDSEC;

DATA;
#1 = CARTESIAN_POINT ( 'NONE',  ( 0.0000000000000000000, 0.0000000000000000000, 0.0000000000000000000 ) ) ;
#2 = CC_DESIGN_SECURITY_CLASSIFICATION ( #120, ( #46 ) ) ;
#3 = PERSON ( 'UNSPECIFIED', 'UNSPECIFIED', 'UNSPECIFIED', ('UNSPECIFIED'), ('UNSPECIFIED'), ('UNSPECIFIED') ) ;
#4 = UNCERTAINTY_MEASURE_WITH_UNIT (LENGTH_MEASURE( 1.000000000000000082E-05 ), #153, 'distance_accuracy_value', 'NONE');
#5 = CARTESIAN_POINT ( 'NONE',  ( 0.0000000000000000000, 0.0000000000000000000, 1.000000000000000000 ) ) ;
#6 = CARTESIAN_POINT ( 'NONE',  ( 6.250000000000000000, 7.654042494670957606E-16, 1.000000000000000000 ) ) ;
#7 = PERSON_AND_ORGANIZATION_ROLE ( 'creator' ) ;
#8 = DESIGN_CONTEXT ( 'detailed design', #113, 'design' ) ;
#9 = PERSON_AND_ORGANIZATION_ROLE ( 'classification_officer' ) ;
#10 = CARTESIAN_POINT ( 'NONE',  ( 0.0000000000000000000, 0.0000000000000000000, 0.0000000000000000000 ) ) ;
#11 = ADVANCED_FACE ( 'NONE', ( #129 ), #48, .T. ) ;
#12 = CYLINDRICAL_SURFACE ( 'NONE', #146, 6.250000000000000000 ) ;
#13 = APPROVAL_DATE_TIME ( #47, #140 ) ;
#14 = ADVANCED_FACE ( 'NONE', ( #40 ), #39, .F. ) ;
#15 = CLOSED_SHELL ( 'NONE', ( #132, #11, #91, #14 ) ) ;
#16 = DIRECTION ( 'NONE',  ( -0.0000000000000000000, -0.0000000000000000000, -1.000000000000000000 ) ) ;
#17 = PERSON_AND_ORGANIZATION_ROLE ( 'design_supplier' ) ;
#18 = COORDINATED_UNIVERSAL_TIME_OFFSET ( 5, 0, .BEHIND. ) ;
#19 = LOCAL_TIME ( 14, 16, 19.00000000000000000, #50 ) ;
#20 = CIRCLE ( 'NONE', #160, 6.250000000000000000 ) ;
#21 = ORIENTED_EDGE ( 'NONE', *, *, #105, .F. ) ;
#22 = LOCAL_TIME ( 14, 16, 19.00000000000000000, #18 ) ;
#23 = PERSON_AND_ORGANIZATION ( #3, #133 ) ;
#24 =( GEOMETRIC_REPRESENTATION_CONTEXT ( 3 ) GLOBAL_UNCERTAINTY_ASSIGNED_CONTEXT ( ( #4 ) ) GLOBAL_UNIT_ASSIGNED_CONTEXT ( ( #153, #112, #42 ) ) REPRESENTATION_CONTEXT ( 'NONE', 'WORKASPACE' ) );
#25 = ORIENTED_EDGE ( 'NONE', *, *, #26, .F. ) ;
#26 = EDGE_CURVE ( 'NONE', #166, #135, #145, .T. ) ;
#27 = APPROVAL_PERSON_ORGANIZATION ( #63, #130, #138 ) ;
#28 = CARTESIAN_POINT ( 'NONE',  ( -6.250000000000000000, 0.0000000000000000000, 0.0000000000000000000 ) ) ;
#29 = DIRECTION ( 'NONE',  ( 0.0000000000000000000, 0.0000000000000000000, 1.000000000000000000 ) ) ;
#30 = APPROVAL_DATE_TIME ( #54, #130 ) ;
#31 = CARTESIAN_POINT ( 'NONE',  ( 0.0000000000000000000, 0.0000000000000000000, 1.000000000000000000 ) ) ;
#32 = CC_DESIGN_PERSON_AND_ORGANIZATION_ASSIGNMENT ( #163, #7, ( #157 ) ) ;
#33 = ORIENTED_EDGE ( 'NONE', *, *, #136, .T. ) ;
#34 = DIRECTION ( 'NONE',  ( 1.000000000000000000, 0.0000000000000000000, -0.0000000000000000000 ) ) ;
#35 = DATE_TIME_ROLE ( 'classification_date' ) ;
#36 = ADVANCED_BREP_SHAPE_REPRESENTATION ( 'Web Model 36252_36252', ( #64, #108 ), #24 ) ;
#37 = AXIS2_PLACEMENT_3D ( 'NONE', #167, #16, #109 ) ;
#38 = CC_DESIGN_DATE_AND_TIME_ASSIGNMENT ( #124, #56, ( #157 ) ) ;
#39 = PLANE ( 'NONE',  #62 ) ;
#40 = FACE_OUTER_BOUND ( 'NONE', #96, .T. ) ;
#41 = CARTESIAN_POINT ( 'NONE',  ( 6.250000000000000000, 7.654042494670957606E-16, 0.0000000000000000000 ) ) ;
#42 =( NAMED_UNIT ( * ) SI_UNIT ( $, .STERADIAN. ) SOLID_ANGLE_UNIT ( ) );
#43 = DIRECTION ( 'NONE',  ( -0.0000000000000000000, -0.0000000000000000000, -1.000000000000000000 ) ) ;
#44 = DIRECTION ( 'NONE',  ( 1.000000000000000000, 0.0000000000000000000, 0.0000000000000000000 ) ) ;
#45 = CARTESIAN_POINT ( 'NONE',  ( 0.0000000000000000000, 0.0000000000000000000, 1.000000000000000000 ) ) ;
#46 = PRODUCT_DEFINITION_FORMATION_WITH_SPECIFIED_SOURCE ( 'ANY', '', #107, .NOT_KNOWN. ) ;
#47 = DATE_AND_TIME ( #116, #119 ) ;
#48 = CYLINDRICAL_SURFACE ( 'NONE', #37, 6.250000000000000000 ) ;
#49 = VERTEX_POINT ( 'NONE', #41 ) ;
#50 = COORDINATED_UNIVERSAL_TIME_OFFSET ( 5, 0, .BEHIND. ) ;
#51 = ORIENTED_EDGE ( 'NONE', *, *, #65, .F. ) ;
#52 = DIRECTION ( 'NONE',  ( 0.0000000000000000000, 0.0000000000000000000, 1.000000000000000000 ) ) ;
#53 = ORIENTED_EDGE ( 'NONE', *, *, #26, .T. ) ;
#54 = DATE_AND_TIME ( #92, #127 ) ;
#55 = APPROVAL_PERSON_ORGANIZATION ( #93, #175, #111 ) ;
#56 = DATE_TIME_ROLE ( 'creation_date' ) ;
#57 = CC_DESIGN_PERSON_AND_ORGANIZATION_ASSIGNMENT ( #23, #17, ( #46 ) ) ;
#58 = ORIENTED_EDGE ( 'NONE', *, *, #136, .F. ) ;
#59 = APPROVAL_STATUS ( 'not_yet_approved' ) ;
#60 = DIRECTION ( 'NONE',  ( 0.0000000000000000000, 0.0000000000000000000, 1.000000000000000000 ) ) ;
#61 = ORIENTED_EDGE ( 'NONE', *, *, #68, .F. ) ;
#62 = AXIS2_PLACEMENT_3D ( 'NONE', #82, #52, #98 ) ;
#63 = PERSON_AND_ORGANIZATION ( #3, #133 ) ;
#64 = MANIFOLD_SOLID_BREP ( 'Boss-Extrude1', #15 ) ;
#65 = EDGE_CURVE ( 'NONE', #95, #49, #20, .T. ) ;
#66 = CALENDAR_DATE ( 2020, 21, 10 ) ;
#67 = ORIENTED_EDGE ( 'NONE', *, *, #144, .F. ) ;
#68 = EDGE_CURVE ( 'NONE', #135, #49, #155, .T. ) ;
#69 = DIRECTION ( 'NONE',  ( 1.000000000000000000, 0.0000000000000000000, 0.0000000000000000000 ) ) ;
#70 = DIRECTION ( 'NONE',  ( 0.0000000000000000000, 0.0000000000000000000, 1.000000000000000000 ) ) ;
#71 = DIRECTION ( 'NONE',  ( 0.0000000000000000000, 0.0000000000000000000, 1.000000000000000000 ) ) ;
#72 = CARTESIAN_POINT ( 'NONE',  ( 6.250000000000000000, 7.654042494670957606E-16, 1.000000000000000000 ) ) ;
#73 = CARTESIAN_POINT ( 'NONE',  ( 0.0000000000000000000, 0.0000000000000000000, 1.000000000000000000 ) ) ;
#74 = AXIS2_PLACEMENT_3D ( 'NONE', #45, #60, #34 ) ;
#75 = PRODUCT_DEFINITION_SHAPE ( 'NONE', 'NONE',  #157 ) ;
#76 = CIRCLE ( 'NONE', #134, 6.250000000000000000 ) ;
#77 = AXIS2_PLACEMENT_3D ( 'NONE', #5, #70, #97 ) ;
#78 = LINE ( 'NONE', #122, #158 ) ;
#79 = COORDINATED_UNIVERSAL_TIME_OFFSET ( 5, 0, .BEHIND. ) ;
#80 = DIRECTION ( 'NONE',  ( -0.0000000000000000000, -0.0000000000000000000, -1.000000000000000000 ) ) ;
#81 = VECTOR ( 'NONE', #80, 1000.000000000000000 ) ;
#82 = CARTESIAN_POINT ( 'NONE',  ( 0.0000000000000000000, 0.0000000000000000000, 0.0000000000000000000 ) ) ;
#83 = APPROVAL_STATUS ( 'not_yet_approved' ) ;
#84 = MECHANICAL_CONTEXT ( 'NONE', #154, 'mechanical' ) ;
#85 = COORDINATED_UNIVERSAL_TIME_OFFSET ( 5, 0, .BEHIND. ) ;
#86 = CC_DESIGN_PERSON_AND_ORGANIZATION_ASSIGNMENT ( #125, #141, ( #46 ) ) ;
#87 = DIRECTION ( 'NONE',  ( -0.0000000000000000000, -0.0000000000000000000, -1.000000000000000000 ) ) ;
#88 = APPROVAL_PERSON_ORGANIZATION ( #89, #140, #139 ) ;
#89 = PERSON_AND_ORGANIZATION ( #3, #133 ) ;
#90 = CALENDAR_DATE ( 2020, 21, 10 ) ;
#91 = ADVANCED_FACE ( 'NONE', ( #121 ), #104, .T. ) ;
#92 = CALENDAR_DATE ( 2020, 21, 10 ) ;
#93 = PERSON_AND_ORGANIZATION ( #3, #133 ) ;
#94 = CC_DESIGN_APPROVAL ( #140, ( #46 ) ) ;
#95 = VERTEX_POINT ( 'NONE', #28 ) ;
#96 = EDGE_LOOP ( 'NONE', ( #51, #21 ) ) ;
#97 = DIRECTION ( 'NONE',  ( 1.000000000000000000, 0.0000000000000000000, 0.0000000000000000000 ) ) ;
#98 = DIRECTION ( 'NONE',  ( 1.000000000000000000, 0.0000000000000000000, -0.0000000000000000000 ) ) ;
#99 = PERSON_AND_ORGANIZATION ( #3, #133 ) ;
#100 = AXIS2_PLACEMENT_3D ( 'NONE', #73, #103, #173 ) ;
#101 = APPROVAL_STATUS ( 'not_yet_approved' ) ;
#102 = ORIENTED_EDGE ( 'NONE', *, *, #144, .T. ) ;
#103 = DIRECTION ( 'NONE',  ( 0.0000000000000000000, 0.0000000000000000000, 1.000000000000000000 ) ) ;
#104 = PLANE ( 'NONE',  #74 ) ;
#105 = EDGE_CURVE ( 'NONE', #49, #95, #76, .T. ) ;
#106 = DIRECTION ( 'NONE',  ( 0.0000000000000000000, 0.0000000000000000000, 1.000000000000000000 ) ) ;
#107 = PRODUCT ( 'Web Model 36252_36252', 'Web Model 36252_36252', '', ( #84 ) ) ;
#108 = AXIS2_PLACEMENT_3D ( 'NONE', #143, #71, #44 ) ;
#109 = DIRECTION ( 'NONE',  ( -1.000000000000000000, 0.0000000000000000000, 0.0000000000000000000 ) ) ;
#110 = DIRECTION ( 'NONE',  ( 1.000000000000000000, 0.0000000000000000000, 0.0000000000000000000 ) ) ;
#111 = APPROVAL_ROLE ( '' ) ;
#112 =( NAMED_UNIT ( * ) PLANE_ANGLE_UNIT ( ) SI_UNIT ( $, .RADIAN. ) );
#113 = APPLICATION_CONTEXT ( 'configuration controlled 3d designs of mechanical parts and assemblies' ) ;
#114 = CC_DESIGN_PERSON_AND_ORGANIZATION_ASSIGNMENT ( #99, #168, ( #107 ) ) ;
#115 = SHAPE_DEFINITION_REPRESENTATION ( #75, #36 ) ;
#116 = CALENDAR_DATE ( 2020, 21, 10 ) ;
#117 = FACE_OUTER_BOUND ( 'NONE', #162, .T. ) ;
#118 = ORIENTED_EDGE ( 'NONE', *, *, #105, .T. ) ;
#119 = LOCAL_TIME ( 14, 16, 19.00000000000000000, #85 ) ;
#120 = SECURITY_CLASSIFICATION ( '', '', #149 ) ;
#121 = FACE_OUTER_BOUND ( 'NONE', #131, .T. ) ;
#122 = CARTESIAN_POINT ( 'NONE',  ( -6.250000000000000000, 0.0000000000000000000, 1.000000000000000000 ) ) ;
#123 = APPLICATION_PROTOCOL_DEFINITION ( 'international standard', 'config_control_design', 1994, #113 ) ;
#124 = DATE_AND_TIME ( #66, #22 ) ;
#125 = PERSON_AND_ORGANIZATION ( #3, #133 ) ;
#126 = APPLICATION_PROTOCOL_DEFINITION ( 'international standard', 'config_control_design', 1994, #154 ) ;
#127 = LOCAL_TIME ( 14, 16, 19.00000000000000000, #169 ) ;
#128 = DATE_AND_TIME ( #90, #165 ) ;
#129 = FACE_OUTER_BOUND ( 'NONE', #156, .T. ) ;
#130 = APPROVAL ( #83, 'UNSPECIFIED' ) ;
#131 = EDGE_LOOP ( 'NONE', ( #53, #33 ) ) ;
#132 = ADVANCED_FACE ( 'NONE', ( #117 ), #12, .T. ) ;
#133 = ORGANIZATION ( 'UNSPECIFIED', 'UNSPECIFIED', '' ) ;
#134 = AXIS2_PLACEMENT_3D ( 'NONE', #10, #29, #110 ) ;
#135 = VERTEX_POINT ( 'NONE', #72 ) ;
#136 = EDGE_CURVE ( 'NONE', #135, #166, #150, .T. ) ;
#137 = DATE_AND_TIME ( #159, #19 ) ;
#138 = APPROVAL_ROLE ( '' ) ;
#139 = APPROVAL_ROLE ( '' ) ;
#140 = APPROVAL ( #101, 'UNSPECIFIED' ) ;
#141 = PERSON_AND_ORGANIZATION_ROLE ( 'creator' ) ;
#142 = CC_DESIGN_APPROVAL ( #175, ( #120 ) ) ;
#143 = CARTESIAN_POINT ( 'NONE',  ( 0.0000000000000000000, 0.0000000000000000000, 0.0000000000000000000 ) ) ;
#144 = EDGE_CURVE ( 'NONE', #166, #95, #78, .T. ) ;
#145 = CIRCLE ( 'NONE', #77, 6.250000000000000000 ) ;
#146 = AXIS2_PLACEMENT_3D ( 'NONE', #31, #43, #170 ) ;
#147 = CC_DESIGN_APPROVAL ( #130, ( #157 ) ) ;
#148 = CARTESIAN_POINT ( 'NONE',  ( -6.250000000000000000, 0.0000000000000000000, 1.000000000000000000 ) ) ;
#149 = SECURITY_CLASSIFICATION_LEVEL ( 'unclassified' ) ;
#150 = CIRCLE ( 'NONE', #100, 6.250000000000000000 ) ;
#151 = PERSON_AND_ORGANIZATION ( #3, #133 ) ;
#152 = PRODUCT_RELATED_PRODUCT_CATEGORY ( 'detail', '', ( #107 ) ) ;
#153 =( LENGTH_UNIT ( ) NAMED_UNIT ( * ) SI_UNIT ( .MILLI., .METRE. ) );
#154 = APPLICATION_CONTEXT ( 'configuration controlled 3d designs of mechanical parts and assemblies' ) ;
#155 = LINE ( 'NONE', #6, #81 ) ;
#156 = EDGE_LOOP ( 'NONE', ( #61, #25, #102, #174 ) ) ;
#157 = PRODUCT_DEFINITION ( 'UNKNOWN', '', #46, #8 ) ;
#158 = VECTOR ( 'NONE', #87, 1000.000000000000000 ) ;
#159 = CALENDAR_DATE ( 2020, 21, 10 ) ;
#160 = AXIS2_PLACEMENT_3D ( 'NONE', #1, #106, #69 ) ;
#161 = CC_DESIGN_DATE_AND_TIME_ASSIGNMENT ( #128, #35, ( #120 ) ) ;
#162 = EDGE_LOOP ( 'NONE', ( #58, #171, #118, #67 ) ) ;
#163 = PERSON_AND_ORGANIZATION ( #3, #133 ) ;
#164 = APPROVAL_DATE_TIME ( #137, #175 ) ;
#165 = LOCAL_TIME ( 14, 16, 19.00000000000000000, #79 ) ;
#166 = VERTEX_POINT ( 'NONE', #148 ) ;
#167 = CARTESIAN_POINT ( 'NONE',  ( 0.0000000000000000000, 0.0000000000000000000, 1.000000000000000000 ) ) ;
#168 = PERSON_AND_ORGANIZATION_ROLE ( 'design_owner' ) ;
#169 = COORDINATED_UNIVERSAL_TIME_OFFSET ( 5, 0, .BEHIND. ) ;
#170 = DIRECTION ( 'NONE',  ( -1.000000000000000000, 0.0000000000000000000, 0.0000000000000000000 ) ) ;
#171 = ORIENTED_EDGE ( 'NONE', *, *, #68, .T. ) ;
#172 = CC_DESIGN_PERSON_AND_ORGANIZATION_ASSIGNMENT ( #151, #9, ( #120 ) ) ;
#173 = DIRECTION ( 'NONE',  ( 1.000000000000000000, 0.0000000000000000000, 0.0000000000000000000 ) ) ;
#174 = ORIENTED_EDGE ( 'NONE', *, *, #65, .T. ) ;
#175 = APPROVAL ( #59, 'UNSPECIFIED' ) ;
ENDSEC;
END-ISO-10303-21;
