ISO-10303-21;
HEADER;
FILE_DESCRIPTION (( 'STEP AP214' ),
    '1' );
FILE_NAME ('4486-E0W.STEP',
    '2009-12-21T17:06:18',
    ( ' ' ),
    ( ' ' ),
    'SwSTEP 2.0',
    'SolidWorks 2009',
    '' );
FILE_SCHEMA (( 'AUTOMOTIVE_DESIGN' ));
ENDSEC;

DATA;
#1 = MANIFOLD_SOLID_BREP ( 'NONE', #6 ) ;
#2 = ORIENTED_EDGE ( 'NONE', *, *, #40, .F. ) ;
#3 =( LENGTH_UNIT ( ) NAMED_UNIT ( * ) SI_UNIT ( .MILLI., .METRE. ) );
#4 = EDGE_LOOP ( 'NONE', ( #53, #39, #44, #35, #55 ) ) ;
#5 = ORIENTED_EDGE ( 'NONE', *, *, #59, .F. ) ;
#6 = CLOSED_SHELL ( 'NONE', ( #7, #62, #45, #38, #47 ) ) ;
#7 = ADVANCED_FACE ( 'NONE', ( #86 ), #111, .T. ) ;
#8 =( NAMED_UNIT ( * ) PLANE_ANGLE_UNIT ( ) SI_UNIT ( $, .RADIAN. ) );
#9 =( NAMED_UNIT ( * ) SI_UNIT ( $, .STERADIAN. ) SOLID_ANGLE_UNIT ( ) );
#10 = STYLED_ITEM ( 'NONE', ( #11 ), #45 ) ;
#11 = PRESENTATION_STYLE_ASSIGNMENT (( #13 ) ) ;
#12 = PRESENTATION_LAYER_ASSIGNMENT (  '', '', ( #10 ) ) ;
#13 = SURFACE_STYLE_USAGE ( .BOTH. , #140 ) ;
#14 =( NAMED_UNIT ( * ) PLANE_ANGLE_UNIT ( ) SI_UNIT ( $, .RADIAN. ) );
#15 = MECHANICAL_DESIGN_GEOMETRIC_PRESENTATION_REPRESENTATION (  '', ( #10 ), #18 ) ;
#16 =( NAMED_UNIT ( * ) SI_UNIT ( $, .STERADIAN. ) SOLID_ANGLE_UNIT ( ) );
#17 =( LENGTH_UNIT ( ) NAMED_UNIT ( * ) SI_UNIT ( .MILLI., .METRE. ) );
#18 =( GEOMETRIC_REPRESENTATION_CONTEXT ( 3 ) GLOBAL_UNCERTAINTY_ASSIGNED_CONTEXT ( ( #23 ) ) GLOBAL_UNIT_ASSIGNED_CONTEXT ( ( #17, #14, #9 ) ) REPRESENTATION_CONTEXT ( 'NONE', 'WORKASPACE' ) );
#19 =( NAMED_UNIT ( * ) PLANE_ANGLE_UNIT ( ) SI_UNIT ( $, .RADIAN. ) );
#20 =( NAMED_UNIT ( * ) SI_UNIT ( $, .STERADIAN. ) SOLID_ANGLE_UNIT ( ) );
#21 = UNCERTAINTY_MEASURE_WITH_UNIT (LENGTH_MEASURE( 1.000000000000000100E-005 ), #3, 'distance_accuracy_value', 'NONE');
#22 =( GEOMETRIC_REPRESENTATION_CONTEXT ( 3 ) GLOBAL_UNCERTAINTY_ASSIGNED_CONTEXT ( ( #21 ) ) GLOBAL_UNIT_ASSIGNED_CONTEXT ( ( #3, #8, #20 ) ) REPRESENTATION_CONTEXT ( 'NONE', 'WORKASPACE' ) );
#23 = UNCERTAINTY_MEASURE_WITH_UNIT (LENGTH_MEASURE( 1.000000000000000100E-005 ), #17, 'distance_accuracy_value', 'NONE');
#24 = PLANE ( 'NONE',  #28 ) ;
#25 =( GEOMETRIC_REPRESENTATION_CONTEXT ( 3 ) GLOBAL_UNCERTAINTY_ASSIGNED_CONTEXT ( ( #30 ) ) GLOBAL_UNIT_ASSIGNED_CONTEXT ( ( #155, #19, #16 ) ) REPRESENTATION_CONTEXT ( 'NONE', 'WORKASPACE' ) );
#26 = DIRECTION ( 'NONE',  ( 0.0000000000000000000, -0.0000000000000000000, 1.000000000000000000 ) ) ;
#27 = CARTESIAN_POINT ( 'NONE',  ( 0.0000000000000000000, 8.615390232001630300E-016, -2.345000000000000200 ) ) ;
#28 = AXIS2_PLACEMENT_3D ( 'NONE', #27, #26, #29 ) ;
#29 = DIRECTION ( 'NONE',  ( 1.000000000000000000, 0.0000000000000000000, 0.0000000000000000000 ) ) ;
#30 = UNCERTAINTY_MEASURE_WITH_UNIT (LENGTH_MEASURE( 1.000000000000000100E-005 ), #155, 'distance_accuracy_value', 'NONE');
#31 = VERTEX_POINT ( 'NONE', #115 ) ;
#32 = VERTEX_POINT ( 'NONE', #110 ) ;
#33 = VERTEX_POINT ( 'NONE', #105 ) ;
#34 = EDGE_CURVE ( 'NONE', #33, #31, #117, .T. ) ;
#35 = ORIENTED_EDGE ( 'NONE', *, *, #70, .F. ) ;
#36 = ORIENTED_EDGE ( 'NONE', *, *, #57, .F. ) ;
#37 = ORIENTED_EDGE ( 'NONE', *, *, #58, .T. ) ;
#38 = ADVANCED_FACE ( 'NONE', ( #128 ), #138, .T. ) ;
#39 = ORIENTED_EDGE ( 'NONE', *, *, #52, .T. ) ;
#40 = EDGE_CURVE ( 'NONE', #61, #41, #129, .T. ) ;
#41 = VERTEX_POINT ( 'NONE', #131 ) ;
#42 = EDGE_CURVE ( 'NONE', #61, #32, #148, .T. ) ;
#43 = ORIENTED_EDGE ( 'NONE', *, *, #34, .T. ) ;
#44 = ORIENTED_EDGE ( 'NONE', *, *, #34, .F. ) ;
#45 = ADVANCED_FACE ( 'NONE', ( #144 ), #151, .T. ) ;
#46 = EDGE_LOOP ( 'NONE', ( #50, #51, #69, #37 ) ) ;
#47 = ADVANCED_FACE ( 'NONE', ( #153 ), #24, .F. ) ;
#48 = EDGE_LOOP ( 'NONE', ( #2, #5 ) ) ;
#49 = EDGE_LOOP ( 'NONE', ( #67, #68, #66, #65, #36 ) ) ;
#50 = ORIENTED_EDGE ( 'NONE', *, *, #56, .F. ) ;
#51 = ORIENTED_EDGE ( 'NONE', *, *, #60, .T. ) ;
#52 = EDGE_CURVE ( 'NONE', #41, #31, #216, .T. ) ;
#53 = ORIENTED_EDGE ( 'NONE', *, *, #40, .T. ) ;
#54 = VERTEX_POINT ( 'NONE', #192 ) ;
#55 = ORIENTED_EDGE ( 'NONE', *, *, #42, .F. ) ;
#56 = EDGE_CURVE ( 'NONE', #54, #71, #214, .T. ) ;
#57 = EDGE_CURVE ( 'NONE', #31, #54, #191, .T. ) ;
#58 = EDGE_CURVE ( 'NONE', #33, #71, #253, .T. ) ;
#59 = EDGE_CURVE ( 'NONE', #41, #61, #225, .T. ) ;
#60 = EDGE_CURVE ( 'NONE', #54, #32, #220, .T. ) ;
#61 = VERTEX_POINT ( 'NONE', #183 ) ;
#62 = ADVANCED_FACE ( 'NONE', ( #182 ), #261, .T. ) ;
#63 = EDGE_LOOP ( 'NONE', ( #43, #64, #73, #72 ) ) ;
#64 = ORIENTED_EDGE ( 'NONE', *, *, #57, .T. ) ;
#65 = ORIENTED_EDGE ( 'NONE', *, *, #60, .F. ) ;
#66 = ORIENTED_EDGE ( 'NONE', *, *, #42, .T. ) ;
#67 = ORIENTED_EDGE ( 'NONE', *, *, #52, .F. ) ;
#68 = ORIENTED_EDGE ( 'NONE', *, *, #59, .T. ) ;
#69 = ORIENTED_EDGE ( 'NONE', *, *, #70, .T. ) ;
#70 = EDGE_CURVE ( 'NONE', #32, #33, #260, .T. ) ;
#71 = VERTEX_POINT ( 'NONE', #247 ) ;
#72 = ORIENTED_EDGE ( 'NONE', *, *, #58, .F. ) ;
#73 = ORIENTED_EDGE ( 'NONE', *, *, #56, .T. ) ;
#74 = PRESENTATION_STYLE_ASSIGNMENT (( #75 ) ) ;
#75 = SURFACE_STYLE_USAGE ( .BOTH. , #76 ) ;
#76 = SURFACE_SIDE_STYLE ('',( #77 ) ) ;
#77 = SURFACE_STYLE_FILL_AREA ( #78 ) ;
#78 = FILL_AREA_STYLE ('',( #79 ) ) ;
#79 = FILL_AREA_STYLE_COLOUR ( '', #85 ) ;
#80 = FILL_AREA_STYLE_COLOUR ( '', #88 ) ;
#81 =( NAMED_UNIT ( * ) SI_UNIT ( $, .STERADIAN. ) SOLID_ANGLE_UNIT ( ) );
#82 = SURFACE_STYLE_FILL_AREA ( #98 ) ;
#83 =( NAMED_UNIT ( * ) PLANE_ANGLE_UNIT ( ) SI_UNIT ( $, .RADIAN. ) );
#84 =( LENGTH_UNIT ( ) NAMED_UNIT ( * ) SI_UNIT ( .MILLI., .METRE. ) );
#85 = COLOUR_RGB ( '',0.9568627450980391500, 0.9490196078431372100, 0.9607843137254902200 ) ;
#86 = FACE_OUTER_BOUND ( 'NONE', #4, .T. ) ;
#87 =( GEOMETRIC_REPRESENTATION_CONTEXT ( 3 ) GLOBAL_UNCERTAINTY_ASSIGNED_CONTEXT ( ( #96 ) ) GLOBAL_UNIT_ASSIGNED_CONTEXT ( ( #84, #102, #81 ) ) REPRESENTATION_CONTEXT ( 'NONE', 'WORKASPACE' ) );
#88 = COLOUR_RGB ( '',0.7960784313725489700, 0.8235294117647058400, 0.9372549019607843100 ) ;
#89 = UNCERTAINTY_MEASURE_WITH_UNIT (LENGTH_MEASURE( 1.000000000000000100E-005 ), #95, 'distance_accuracy_value', 'NONE');
#90 =( NAMED_UNIT ( * ) SI_UNIT ( $, .STERADIAN. ) SOLID_ANGLE_UNIT ( ) );
#91 =( GEOMETRIC_REPRESENTATION_CONTEXT ( 3 ) GLOBAL_UNCERTAINTY_ASSIGNED_CONTEXT ( ( #89 ) ) GLOBAL_UNIT_ASSIGNED_CONTEXT ( ( #95, #83, #90 ) ) REPRESENTATION_CONTEXT ( 'NONE', 'WORKASPACE' ) );
#92 = STYLED_ITEM ( 'NONE', ( #94 ), #1 ) ;
#93 = SURFACE_SIDE_STYLE ('',( #82 ) ) ;
#94 = PRESENTATION_STYLE_ASSIGNMENT (( #103 ) ) ;
#95 =( LENGTH_UNIT ( ) NAMED_UNIT ( * ) SI_UNIT ( .MILLI., .METRE. ) );
#96 = UNCERTAINTY_MEASURE_WITH_UNIT (LENGTH_MEASURE( 1.000000000000000100E-005 ), #84, 'distance_accuracy_value', 'NONE');
#97 = PRESENTATION_LAYER_ASSIGNMENT (  '', '', ( #92 ) ) ;
#98 = FILL_AREA_STYLE ('',( #80 ) ) ;
#99 = MECHANICAL_DESIGN_GEOMETRIC_PRESENTATION_REPRESENTATION (  '', ( #101 ), #91 ) ;
#100 = PRESENTATION_LAYER_ASSIGNMENT (  '', '', ( #101 ) ) ;
#101 = STYLED_ITEM ( 'NONE', ( #74 ), #7 ) ;
#102 =( NAMED_UNIT ( * ) PLANE_ANGLE_UNIT ( ) SI_UNIT ( $, .RADIAN. ) );
#103 = SURFACE_STYLE_USAGE ( .BOTH. , #93 ) ;
#104 = MECHANICAL_DESIGN_GEOMETRIC_PRESENTATION_REPRESENTATION (  '', ( #92 ), #87 ) ;
#105 = CARTESIAN_POINT ( 'NONE',  ( 0.0000000000000000000, 9.000000000000001800, -0.5470344004293455900 ) ) ;
#106 = CARTESIAN_POINT ( 'NONE',  ( 0.0000000000000000000, 0.0000000000000000000, 4.308132045400366600 ) ) ;
#107 = DIRECTION ( 'NONE',  ( -0.0000000000000000000, -0.0000000000000000000, 1.000000000000000000 ) ) ;
#108 = AXIS2_PLACEMENT_3D ( 'NONE', #106, #107, #109 ) ;
#109 = DIRECTION ( 'NONE',  ( 1.000000000000000000, 0.0000000000000000000, 0.0000000000000000000 ) ) ;
#110 = CARTESIAN_POINT ( 'NONE',  ( 9.000000000000001800, 0.0000000000000000000, -0.5470344004293451500 ) ) ;
#111 = CYLINDRICAL_SURFACE ( 'NONE', #108, 9.000000000000001800 ) ;
#112 = DIRECTION ( 'NONE',  ( 1.000000000000000000, 0.0000000000000000000, 0.0000000000000000000 ) ) ;
#113 = DIRECTION ( 'NONE',  ( -0.0000000000000000000, -0.0000000000000000000, 1.000000000000000000 ) ) ;
#114 = CARTESIAN_POINT ( 'NONE',  ( 0.0000000000000000000, 0.0000000000000000000, -0.5470344004293451500 ) ) ;
#115 = CARTESIAN_POINT ( 'NONE',  ( -9.000000000000001800, 1.102145718440139700E-015, -0.5470344004293451500 ) ) ;
#116 = AXIS2_PLACEMENT_3D ( 'NONE', #114, #113, #112 ) ;
#117 = CIRCLE ( 'NONE', #116, 9.000000000000001800 ) ;
#118 = MECHANICAL_DESIGN_GEOMETRIC_PRESENTATION_REPRESENTATION (  '', ( #120 ), #22 ) ;
#119 = PRESENTATION_LAYER_ASSIGNMENT (  '', '', ( #120 ) ) ;
#120 = STYLED_ITEM ( 'NONE', ( #121 ), #38 ) ;
#121 = PRESENTATION_STYLE_ASSIGNMENT (( #122 ) ) ;
#122 = SURFACE_STYLE_USAGE ( .BOTH. , #123 ) ;
#123 = SURFACE_SIDE_STYLE ('',( #124 ) ) ;
#124 = SURFACE_STYLE_FILL_AREA ( #125 ) ;
#125 = FILL_AREA_STYLE ('',( #127 ) ) ;
#126 = COLOUR_RGB ( '',0.9568627450980391500, 0.9490196078431372100, 0.9607843137254902200 ) ;
#127 = FILL_AREA_STYLE_COLOUR ( '', #126 ) ;
#128 = FACE_OUTER_BOUND ( 'NONE', #49, .T. ) ;
#129 = CIRCLE ( 'NONE', #130, 9.000000000000001800 ) ;
#130 = AXIS2_PLACEMENT_3D ( 'NONE', #134, #133, #132 ) ;
#131 = CARTESIAN_POINT ( 'NONE',  ( -9.000000000000001800, 1.102145718440139700E-015, -2.344999999999999800 ) ) ;
#132 = DIRECTION ( 'NONE',  ( 1.000000000000000000, 0.0000000000000000000, 0.0000000000000000000 ) ) ;
#133 = DIRECTION ( 'NONE',  ( -0.0000000000000000000, -0.0000000000000000000, 1.000000000000000000 ) ) ;
#134 = CARTESIAN_POINT ( 'NONE',  ( 0.0000000000000000000, 0.0000000000000000000, -2.344999999999999800 ) ) ;
#135 = AXIS2_PLACEMENT_3D ( 'NONE', #137, #136, #139 ) ;
#136 = DIRECTION ( 'NONE',  ( -0.0000000000000000000, -0.0000000000000000000, 1.000000000000000000 ) ) ;
#137 = CARTESIAN_POINT ( 'NONE',  ( 0.0000000000000000000, 0.0000000000000000000, 4.308132045400366600 ) ) ;
#138 = CYLINDRICAL_SURFACE ( 'NONE', #135, 9.000000000000001800 ) ;
#139 = DIRECTION ( 'NONE',  ( 1.000000000000000000, 0.0000000000000000000, 0.0000000000000000000 ) ) ;
#140 = SURFACE_SIDE_STYLE ('',( #141 ) ) ;
#141 = SURFACE_STYLE_FILL_AREA ( #142 ) ;
#142 = FILL_AREA_STYLE ('',( #149 ) ) ;
#143 = COLOUR_RGB ( '',0.9568627450980391500, 0.9490196078431372100, 0.9607843137254902200 ) ;
#144 = FACE_OUTER_BOUND ( 'NONE', #46, .T. ) ;
#145 = DIRECTION ( 'NONE',  ( -0.0000000000000000000, -0.0000000000000000000, 1.000000000000000000 ) ) ;
#146 = VECTOR ( 'NONE', #145, 1000.000000000000000 ) ;
#147 = CARTESIAN_POINT ( 'NONE',  ( 9.000000000000001800, 0.0000000000000000000, 4.308132045400366600 ) ) ;
#148 = LINE ( 'NONE', #147, #146 ) ;
#149 = FILL_AREA_STYLE_COLOUR ( '', #143 ) ;
#150 = AXIS2_PLACEMENT_3D ( 'NONE', #154, #166, #165 ) ;
#151 = SPHERICAL_SURFACE ( 'NONE', #150, 15.44999999999999900 ) ;
#152 = COLOUR_RGB ( '',0.9568627450980391500, 0.9490196078431372100, 0.9607843137254902200 ) ;
#153 = FACE_OUTER_BOUND ( 'NONE', #48, .T. ) ;
#154 = CARTESIAN_POINT ( 'NONE',  ( 0.0000000000000000000, 0.0000000000000000000, -13.10499999999999900 ) ) ;
#155 =( LENGTH_UNIT ( ) NAMED_UNIT ( * ) SI_UNIT ( .MILLI., .METRE. ) );
#156 = MECHANICAL_DESIGN_GEOMETRIC_PRESENTATION_REPRESENTATION (  '', ( #158 ), #25 ) ;
#157 = PRESENTATION_LAYER_ASSIGNMENT (  '', '', ( #158 ) ) ;
#158 = STYLED_ITEM ( 'NONE', ( #159 ), #47 ) ;
#159 = PRESENTATION_STYLE_ASSIGNMENT (( #160 ) ) ;
#160 = SURFACE_STYLE_USAGE ( .BOTH. , #161 ) ;
#161 = SURFACE_SIDE_STYLE ('',( #162 ) ) ;
#162 = SURFACE_STYLE_FILL_AREA ( #163 ) ;
#163 = FILL_AREA_STYLE ('',( #164 ) ) ;
#164 = FILL_AREA_STYLE_COLOUR ( '', #152 ) ;
#165 = DIRECTION ( 'NONE',  ( 0.0000000000000000000, 1.000000000000000000, 0.0000000000000000000 ) ) ;
#166 = DIRECTION ( 'NONE',  ( -1.000000000000000000, 0.0000000000000000000, 0.0000000000000000000 ) ) ;
#167 =( GEOMETRIC_REPRESENTATION_CONTEXT ( 3 ) GLOBAL_UNCERTAINTY_ASSIGNED_CONTEXT ( ( #168 ) ) GLOBAL_UNIT_ASSIGNED_CONTEXT ( ( #171, #170, #169 ) ) REPRESENTATION_CONTEXT ( 'NONE', 'WORKASPACE' ) );
#168 = UNCERTAINTY_MEASURE_WITH_UNIT (LENGTH_MEASURE( 1.000000000000000100E-005 ), #171, 'distance_accuracy_value', 'NONE');
#169 =( NAMED_UNIT ( * ) SI_UNIT ( $, .STERADIAN. ) SOLID_ANGLE_UNIT ( ) );
#170 =( NAMED_UNIT ( * ) PLANE_ANGLE_UNIT ( ) SI_UNIT ( $, .RADIAN. ) );
#171 =( LENGTH_UNIT ( ) NAMED_UNIT ( * ) SI_UNIT ( .MILLI., .METRE. ) );
#172 = MECHANICAL_DESIGN_GEOMETRIC_PRESENTATION_REPRESENTATION (  '', ( #174 ), #167 ) ;
#173 = PRESENTATION_LAYER_ASSIGNMENT (  '', '', ( #174 ) ) ;
#174 = STYLED_ITEM ( 'NONE', ( #175 ), #62 ) ;
#175 = PRESENTATION_STYLE_ASSIGNMENT (( #176 ) ) ;
#176 = SURFACE_STYLE_USAGE ( .BOTH. , #177 ) ;
#177 = SURFACE_SIDE_STYLE ('',( #178 ) ) ;
#178 = SURFACE_STYLE_FILL_AREA ( #179 ) ;
#179 = FILL_AREA_STYLE ('',( #180 ) ) ;
#180 = FILL_AREA_STYLE_COLOUR ( '', #181 ) ;
#181 = COLOUR_RGB ( '',0.9568627450980391500, 0.9490196078431372100, 0.9607843137254902200 ) ;
#182 = FACE_OUTER_BOUND ( 'NONE', #63, .T. ) ;
#183 = CARTESIAN_POINT ( 'NONE',  ( 9.000000000000001800, 0.0000000000000000000, -2.344999999999999800 ) ) ;
#184 = DIRECTION ( 'NONE',  ( 1.000000000000000000, 0.0000000000000000000, 0.0000000000000000000 ) ) ;
#185 = DIRECTION ( 'NONE',  ( -0.0000000000000000000, -0.0000000000000000000, 1.000000000000000000 ) ) ;
#186 = CARTESIAN_POINT ( 'NONE',  ( -9.000000000000001800, 1.102145718440139700E-015, 4.308132045400366600 ) ) ;
#187 = DIRECTION ( 'NONE',  ( 1.000000000000000000, 0.0000000000000000000, 0.0000000000000000000 ) ) ;
#188 = DIRECTION ( 'NONE',  ( -0.0000000000000000000, -0.0000000000000000000, 1.000000000000000000 ) ) ;
#189 = CARTESIAN_POINT ( 'NONE',  ( 0.0000000000000000000, 0.0000000000000000000, -0.5470344004293451500 ) ) ;
#190 = AXIS2_PLACEMENT_3D ( 'NONE', #189, #188, #187 ) ;
#191 = CIRCLE ( 'NONE', #190, 9.000000000000001800 ) ;
#192 = CARTESIAN_POINT ( 'NONE',  ( -1.102145718440139700E-015, -9.000000000000001800, -0.5470344004293455900 ) ) ;
#193 = DIRECTION ( 'NONE',  ( 1.000000000000000000, 0.0000000000000000000, 0.0000000000000000000 ) ) ;
#194 = DIRECTION ( 'NONE',  ( 0.0000000000000000000, 0.0000000000000000000, 1.000000000000000000 ) ) ;
#195 = AXIS2_PLACEMENT_3D ( 'NONE', #246, #194, #193 ) ;
#196 =( GEOMETRIC_REPRESENTATION_CONTEXT ( 3 ) GLOBAL_UNCERTAINTY_ASSIGNED_CONTEXT ( ( #197 ) ) GLOBAL_UNIT_ASSIGNED_CONTEXT ( ( #200, #199, #198 ) ) REPRESENTATION_CONTEXT ( 'NONE', 'WORKASPACE' ) );
#197 = UNCERTAINTY_MEASURE_WITH_UNIT (LENGTH_MEASURE( 1.000000000000000100E-005 ), #200, 'distance_accuracy_value', 'NONE');
#198 =( NAMED_UNIT ( * ) SI_UNIT ( $, .STERADIAN. ) SOLID_ANGLE_UNIT ( ) );
#199 =( NAMED_UNIT ( * ) PLANE_ANGLE_UNIT ( ) SI_UNIT ( $, .RADIAN. ) );
#200 =( LENGTH_UNIT ( ) NAMED_UNIT ( * ) SI_UNIT ( .MILLI., .METRE. ) );
#201 = MECHANICAL_DESIGN_GEOMETRIC_PRESENTATION_REPRESENTATION (  '', ( #203 ), #196 ) ;
#202 = PRESENTATION_LAYER_ASSIGNMENT (  '', '', ( #203 ) ) ;
#203 = STYLED_ITEM ( 'NONE', ( #204 ), #213 ) ;
#204 = PRESENTATION_STYLE_ASSIGNMENT (( #205 ) ) ;
#205 = SURFACE_STYLE_USAGE ( .BOTH. , #206 ) ;
#206 = SURFACE_SIDE_STYLE ('',( #207 ) ) ;
#207 = SURFACE_STYLE_FILL_AREA ( #208 ) ;
#208 = FILL_AREA_STYLE ('',( #209 ) ) ;
#209 = FILL_AREA_STYLE_COLOUR ( '', #210 ) ;
#210 = COLOUR_RGB ( '',0.7960784313725489700, 0.8235294117647058400, 0.9372549019607843100 ) ;
#211 = APPLICATION_CONTEXT ( 'automotive_design' ) ;
#212 = SHAPE_DEFINITION_REPRESENTATION ( #227, #213 ) ;
#213 = ADVANCED_BREP_SHAPE_REPRESENTATION ( '4486-E0W', ( #1, #195 ), #241 ) ;
#214 = CIRCLE ( 'NONE', #240, 15.44999999999999900 ) ;
#215 = VECTOR ( 'NONE', #185, 1000.000000000000000 ) ;
#216 = LINE ( 'NONE', #186, #215 ) ;
#217 = DIRECTION ( 'NONE',  ( -0.0000000000000000000, -0.0000000000000000000, 1.000000000000000000 ) ) ;
#218 = CARTESIAN_POINT ( 'NONE',  ( 0.0000000000000000000, 0.0000000000000000000, -0.5470344004293451500 ) ) ;
#219 = AXIS2_PLACEMENT_3D ( 'NONE', #218, #217, #184 ) ;
#220 = CIRCLE ( 'NONE', #219, 9.000000000000001800 ) ;
#221 = DIRECTION ( 'NONE',  ( 1.000000000000000000, 0.0000000000000000000, 0.0000000000000000000 ) ) ;
#222 = DIRECTION ( 'NONE',  ( -0.0000000000000000000, -0.0000000000000000000, 1.000000000000000000 ) ) ;
#223 = CARTESIAN_POINT ( 'NONE',  ( 0.0000000000000000000, 0.0000000000000000000, -2.344999999999999800 ) ) ;
#224 = AXIS2_PLACEMENT_3D ( 'NONE', #223, #222, #221 ) ;
#225 = CIRCLE ( 'NONE', #224, 9.000000000000001800 ) ;
#226 = DIRECTION ( 'NONE',  ( 0.0000000000000000000, 0.0000000000000000000, -1.000000000000000000 ) ) ;
#227 = PRODUCT_DEFINITION_SHAPE ( 'NONE', 'NONE',  #230 ) ;
#228 = PRODUCT_RELATED_PRODUCT_CATEGORY ( 'part', '', ( #234 ) ) ;
#229 = PRODUCT_DEFINITION_FORMATION_WITH_SPECIFIED_SOURCE ( 'ANY', '', #234, .NOT_KNOWN. ) ;
#230 = PRODUCT_DEFINITION ( 'UNKNOWN', '', #229, #231 ) ;
#231 = PRODUCT_DEFINITION_CONTEXT ( 'detailed design', #233, 'design' ) ;
#232 = APPLICATION_PROTOCOL_DEFINITION ( 'draft international standard', 'automotive_design', 1998, #233 ) ;
#233 = APPLICATION_CONTEXT ( 'automotive_design' ) ;
#234 = PRODUCT ( '4486-E0W', '4486-E0W', '', ( #235 ) ) ;
#235 = PRODUCT_CONTEXT ( 'NONE', #211, 'mechanical' ) ;
#236 = APPLICATION_PROTOCOL_DEFINITION ( 'draft international standard', 'automotive_design', 1998, #211 ) ;
#237 = DIRECTION ( 'NONE',  ( -1.224606353822377300E-016, -1.000000000000000000, 0.0000000000000000000 ) ) ;
#238 = DIRECTION ( 'NONE',  ( -1.000000000000000000, 1.224606353822377300E-016, 0.0000000000000000000 ) ) ;
#239 = CARTESIAN_POINT ( 'NONE',  ( 0.0000000000000000000, 0.0000000000000000000, -13.10499999999999900 ) ) ;
#240 = AXIS2_PLACEMENT_3D ( 'NONE', #239, #238, #237 ) ;
#241 =( GEOMETRIC_REPRESENTATION_CONTEXT ( 3 ) GLOBAL_UNCERTAINTY_ASSIGNED_CONTEXT ( ( #242 ) ) GLOBAL_UNIT_ASSIGNED_CONTEXT ( ( #245, #244, #243 ) ) REPRESENTATION_CONTEXT ( 'NONE', 'WORKASPACE' ) );
#242 = UNCERTAINTY_MEASURE_WITH_UNIT (LENGTH_MEASURE( 1.000000000000000100E-005 ), #245, 'distance_accuracy_value', 'NONE');
#243 =( NAMED_UNIT ( * ) SI_UNIT ( $, .STERADIAN. ) SOLID_ANGLE_UNIT ( ) );
#244 =( NAMED_UNIT ( * ) PLANE_ANGLE_UNIT ( ) SI_UNIT ( $, .RADIAN. ) );
#245 =( LENGTH_UNIT ( ) NAMED_UNIT ( * ) SI_UNIT ( .MILLI., .METRE. ) );
#246 = CARTESIAN_POINT ( 'NONE',  ( 0.0000000000000000000, 0.0000000000000000000, 0.0000000000000000000 ) ) ;
#247 = CARTESIAN_POINT ( 'NONE',  ( 0.0000000000000000000, 9.460084083277863100E-016, 2.344999999999999800 ) ) ;
#248 = DIRECTION ( 'NONE',  ( 1.000000000000000000, 0.0000000000000000000, 0.0000000000000000000 ) ) ;
#249 = DIRECTION ( 'NONE',  ( -0.0000000000000000000, -0.0000000000000000000, 1.000000000000000000 ) ) ;
#250 = DIRECTION ( 'NONE',  ( 1.000000000000000000, 0.0000000000000000000, 0.0000000000000000000 ) ) ;
#251 = CARTESIAN_POINT ( 'NONE',  ( 0.0000000000000000000, 0.0000000000000000000, -13.10499999999999900 ) ) ;
#252 = AXIS2_PLACEMENT_3D ( 'NONE', #251, #250, #226 ) ;
#253 = CIRCLE ( 'NONE', #252, 15.44999999999999900 ) ;
#254 = CARTESIAN_POINT ( 'NONE',  ( 0.0000000000000000000, 0.0000000000000000000, -0.5470344004293451500 ) ) ;
#255 = AXIS2_PLACEMENT_3D ( 'NONE', #254, #249, #248 ) ;
#256 = DIRECTION ( 'NONE',  ( 0.0000000000000000000, 1.000000000000000000, 0.0000000000000000000 ) ) ;
#257 = DIRECTION ( 'NONE',  ( -1.000000000000000000, 0.0000000000000000000, 0.0000000000000000000 ) ) ;
#258 = CARTESIAN_POINT ( 'NONE',  ( 0.0000000000000000000, 0.0000000000000000000, -13.10499999999999900 ) ) ;
#259 = AXIS2_PLACEMENT_3D ( 'NONE', #258, #257, #256 ) ;
#260 = CIRCLE ( 'NONE', #255, 9.000000000000001800 ) ;
#261 = SPHERICAL_SURFACE ( 'NONE', #259, 15.44999999999999900 ) ;
ENDSEC;
END-ISO-10303-21;
