ISO-10303-21;
HEADER;
FILE_DESCRIPTION (( 'STEP AP203' ),
    '1' );
FILE_NAME ('Web Model 11856_11856.step',
    '2019-01-10T19:38:01',
    ( '' ),
    ( '' ),
    'SwSTEP 2.0',
    'SolidWorks 2016',
    '' );
FILE_SCHEMA (( 'CONFIG_CONTROL_DESIGN' ));
ENDSEC;

DATA;
#1 = CALENDAR_DATE ( 2019, 10, 1 ) ;
#2 = DATE_TIME_ROLE ( 'creation_date' ) ;
#3 = FACE_OUTER_BOUND ( 'NONE', #184, .T. ) ;
#4 = ORIENTED_EDGE ( 'NONE', *, *, #174, .T. ) ;
#5 = PRODUCT_DEFINITION ( 'UNKNOWN', '', #106, #185 ) ;
#6 = DIRECTION ( 'NONE',  ( 0.0000000000000000000, 0.0000000000000000000, -1.000000000000000000 ) ) ;
#7 = PERSON_AND_ORGANIZATION ( #14, #89 ) ;
#8 = ORIENTED_EDGE ( 'NONE', *, *, #54, .F. ) ;
#9 = AXIS2_PLACEMENT_3D ( 'NONE', #166, #67, #88 ) ;
#10 = CC_DESIGN_PERSON_AND_ORGANIZATION_ASSIGNMENT ( #150, #273, ( #199 ) ) ;
#11 = ORIENTED_EDGE ( 'NONE', *, *, #174, .F. ) ;
#12 = CARTESIAN_POINT ( 'NONE',  ( 3.000000000000000000, 6.107925910747425800E-015, -49.75000000000002800 ) ) ;
#13 = DIRECTION ( 'NONE',  ( -1.000000000000000000, -0.0000000000000000000, -0.0000000000000000000 ) ) ;
#14 = PERSON ( 'UNSPECIFIED', 'UNSPECIFIED', 'UNSPECIFIED', ('UNSPECIFIED'), ('UNSPECIFIED'), ('UNSPECIFIED') ) ;
#15 = APPROVAL_DATE_TIME ( #179, #239 ) ;
#16 = CC_DESIGN_APPROVAL ( #96, ( #21 ) ) ;
#17 = CARTESIAN_POINT ( 'NONE',  ( 3.000000000000000000, 0.0000000000000000000, 0.0000000000000000000 ) ) ;
#18 = CARTESIAN_POINT ( 'NONE',  ( 3.000000000000000000, 0.0000000000000000000, 49.75000000000002800 ) ) ;
#19 = CARTESIAN_POINT ( 'NONE',  ( -2.750000000000006700, 0.0000000000000000000, 0.0000000000000000000 ) ) ;
#20 = CIRCLE ( 'NONE', #186, 49.75000000000000700 ) ;
#21 = SECURITY_CLASSIFICATION ( '', '', #38 ) ;
#22 = LOCAL_TIME ( 14, 38, 1.000000000000000000, #125 ) ;
#23 =( GEOMETRIC_REPRESENTATION_CONTEXT ( 3 ) GLOBAL_UNCERTAINTY_ASSIGNED_CONTEXT ( ( #58 ) ) GLOBAL_UNIT_ASSIGNED_CONTEXT ( ( #92, #253, #109 ) ) REPRESENTATION_CONTEXT ( 'NONE', 'WORKASPACE' ) );
#24 = APPROVAL_PERSON_ORGANIZATION ( #94, #139, #40 ) ;
#25 = CC_DESIGN_APPROVAL ( #239, ( #106 ) ) ;
#26 = CARTESIAN_POINT ( 'NONE',  ( 3.000000000000000000, 0.0000000000000000000, 49.75000000000002800 ) ) ;
#27 = APPROVAL_STATUS ( 'not_yet_approved' ) ;
#28 = FACE_OUTER_BOUND ( 'NONE', #115, .T. ) ;
#29 = VERTEX_POINT ( 'NONE', #137 ) ;
#30 = CARTESIAN_POINT ( 'NONE',  ( -2.750000000000006700, 6.123233995736766100E-015, -50.00000000000000000 ) ) ;
#31 = CARTESIAN_POINT ( 'NONE',  ( -2.750000000000006700, 0.0000000000000000000, 0.0000000000000000000 ) ) ;
#32 = VERTEX_POINT ( 'NONE', #30 ) ;
#33 = CARTESIAN_POINT ( 'NONE',  ( 3.000000000000000000, 6.123233995736766100E-015, -50.00000000000000000 ) ) ;
#34 = PERSON_AND_ORGANIZATION_ROLE ( 'creator' ) ;
#35 = CC_DESIGN_PERSON_AND_ORGANIZATION_ASSIGNMENT ( #98, #123, ( #21 ) ) ;
#36 = PLANE ( 'NONE',  #271 ) ;
#37 = FACE_OUTER_BOUND ( 'NONE', #156, .T. ) ;
#38 = SECURITY_CLASSIFICATION_LEVEL ( 'unclassified' ) ;
#39 = ORIENTED_EDGE ( 'NONE', *, *, #242, .F. ) ;
#40 = APPROVAL_ROLE ( '' ) ;
#41 = PERSON_AND_ORGANIZATION ( #14, #89 ) ;
#42 = CONICAL_SURFACE ( 'NONE', #49, 49.75000000000002800, 0.7853981633974344000 ) ;
#43 = EDGE_CURVE ( 'NONE', #126, #32, #274, .T. ) ;
#44 = DIRECTION ( 'NONE',  ( 0.0000000000000000000, 0.0000000000000000000, 1.000000000000000000 ) ) ;
#45 = EDGE_CURVE ( 'NONE', #235, #126, #177, .T. ) ;
#46 = APPLICATION_CONTEXT ( 'configuration controlled 3d designs of mechanical parts and assemblies' ) ;
#47 = EDGE_LOOP ( 'NONE', ( #175, #142, #53, #264 ) ) ;
#48 = ADVANCED_FACE ( 'NONE', ( #261 ), #42, .T. ) ;
#49 = AXIS2_PLACEMENT_3D ( 'NONE', #217, #56, #116 ) ;
#50 = CIRCLE ( 'NONE', #131, 49.75000000000002800 ) ;
#51 = APPROVAL_ROLE ( '' ) ;
#52 = CYLINDRICAL_SURFACE ( 'NONE', #182, 50.00000000000000000 ) ;
#53 = ORIENTED_EDGE ( 'NONE', *, *, #59, .F. ) ;
#54 = EDGE_CURVE ( 'NONE', #29, #251, #107, .T. ) ;
#55 = PERSON_AND_ORGANIZATION ( #14, #89 ) ;
#56 = DIRECTION ( 'NONE',  ( -1.000000000000000000, 0.0000000000000000000, 0.0000000000000000000 ) ) ;
#57 = CIRCLE ( 'NONE', #9, 49.75000000000002800 ) ;
#58 = UNCERTAINTY_MEASURE_WITH_UNIT (LENGTH_MEASURE( 1.000000000000000100E-005 ), #92, 'distance_accuracy_value', 'NONE');
#59 = EDGE_CURVE ( 'NONE', #29, #151, #153, .T. ) ;
#60 = CARTESIAN_POINT ( 'NONE',  ( 3.000000000000000000, 6.092617825758085500E-015, -49.75000000000002800 ) ) ;
#61 = ORIENTED_EDGE ( 'NONE', *, *, #45, .T. ) ;
#62 = EDGE_LOOP ( 'NONE', ( #74, #76, #168, #258 ) ) ;
#63 = CARTESIAN_POINT ( 'NONE',  ( -3.000000000000000000, 0.0000000000000000000, 0.0000000000000000000 ) ) ;
#64 = CARTESIAN_POINT ( 'NONE',  ( 2.750000000000020900, 0.0000000000000000000, 0.0000000000000000000 ) ) ;
#65 = VERTEX_POINT ( 'NONE', #26 ) ;
#66 = ADVANCED_FACE ( 'NONE', ( #37 ), #158, .T. ) ;
#67 = DIRECTION ( 'NONE',  ( 1.000000000000000000, 0.0000000000000000000, 0.0000000000000000000 ) ) ;
#68 = APPROVAL_STATUS ( 'not_yet_approved' ) ;
#69 = FACE_OUTER_BOUND ( 'NONE', #201, .T. ) ;
#70 = APPLICATION_CONTEXT ( 'configuration controlled 3d designs of mechanical parts and assemblies' ) ;
#71 = ADVANCED_FACE ( 'NONE', ( #134 ), #81, .T. ) ;
#72 = AXIS2_PLACEMENT_3D ( 'NONE', #250, #128, #172 ) ;
#73 = DATE_AND_TIME ( #159, #22 ) ;
#74 = ORIENTED_EDGE ( 'NONE', *, *, #233, .F. ) ;
#75 = DATE_AND_TIME ( #130, #236 ) ;
#76 = ORIENTED_EDGE ( 'NONE', *, *, #155, .F. ) ;
#77 = AXIS2_PLACEMENT_3D ( 'NONE', #95, #136, #6 ) ;
#78 = CALENDAR_DATE ( 2019, 10, 1 ) ;
#79 = EDGE_LOOP ( 'NONE', ( #193, #164, #133, #160 ) ) ;
#80 = CARTESIAN_POINT ( 'NONE',  ( -2.750000000000006700, 0.0000000000000000000, -50.00000000000000000 ) ) ;
#81 = CONICAL_SURFACE ( 'NONE', #171, 50.00000000000000000, 0.7853981633974482800 ) ;
#82 = ORIENTED_EDGE ( 'NONE', *, *, #176, .T. ) ;
#83 = DIRECTION ( 'NONE',  ( 1.000000000000000000, 0.0000000000000000000, 0.0000000000000000000 ) ) ;
#84 = CC_DESIGN_PERSON_AND_ORGANIZATION_ASSIGNMENT ( #55, #34, ( #106 ) ) ;
#85 = PERSON_AND_ORGANIZATION ( #14, #89 ) ;
#86 = ORIENTED_EDGE ( 'NONE', *, *, #242, .T. ) ;
#87 = DIRECTION ( 'NONE',  ( 0.0000000000000000000, 0.0000000000000000000, -1.000000000000000000 ) ) ;
#88 = DIRECTION ( 'NONE',  ( 0.0000000000000000000, 0.0000000000000000000, -1.000000000000000000 ) ) ;
#89 = ORGANIZATION ( 'UNSPECIFIED', 'UNSPECIFIED', '' ) ;
#90 = DIRECTION ( 'NONE',  ( -0.7071067811865574500, 8.659560562354813300E-017, -0.7071067811865376900 ) ) ;
#91 = AXIS2_PLACEMENT_3D ( 'NONE', #122, #262, #197 ) ;
#92 =( LENGTH_UNIT ( ) NAMED_UNIT ( * ) SI_UNIT ( .MILLI., .METRE. ) );
#93 = APPROVAL_DATE_TIME ( #75, #139 ) ;
#94 = PERSON_AND_ORGANIZATION ( #14, #89 ) ;
#95 = CARTESIAN_POINT ( 'NONE',  ( 2.750000000000020900, 0.0000000000000000000, 0.0000000000000000000 ) ) ;
#96 = APPROVAL ( #102, 'UNSPECIFIED' ) ;
#97 = DIRECTION ( 'NONE',  ( 0.7071067811865474600, 0.0000000000000000000, -0.7071067811865474600 ) ) ;
#98 = PERSON_AND_ORGANIZATION ( #14, #89 ) ;
#99 = CARTESIAN_POINT ( 'NONE',  ( 2.750000000000020900, 6.123233995736766100E-015, -50.00000000000000000 ) ) ;
#100 = DATE_TIME_ROLE ( 'classification_date' ) ;
#101 = DIRECTION ( 'NONE',  ( 0.0000000000000000000, 0.0000000000000000000, -1.000000000000000000 ) ) ;
#102 = APPROVAL_STATUS ( 'not_yet_approved' ) ;
#103 = AXIS2_PLACEMENT_3D ( 'NONE', #238, #241, #154 ) ;
#104 = DIRECTION ( 'NONE',  ( 1.000000000000000000, 0.0000000000000000000, 0.0000000000000000000 ) ) ;
#105 = CLOSED_SHELL ( 'NONE', ( #48, #252, #152, #146, #66, #108, #71, #230 ) ) ;
#106 = PRODUCT_DEFINITION_FORMATION_WITH_SPECIFIED_SOURCE ( 'ANY', '', #199, .NOT_KNOWN. ) ;
#107 = LINE ( 'NONE', #260, #243 ) ;
#108 = ADVANCED_FACE ( 'NONE', ( #28 ), #36, .F. ) ;
#109 =( NAMED_UNIT ( * ) SI_UNIT ( $, .STERADIAN. ) SOLID_ANGLE_UNIT ( ) );
#110 = CONICAL_SURFACE ( 'NONE', #214, 50.00000000000000000, 0.7853981633974482800 ) ;
#111 = CC_DESIGN_SECURITY_CLASSIFICATION ( #21, ( #106 ) ) ;
#112 = COORDINATED_UNIVERSAL_TIME_OFFSET ( 5, 0, .BEHIND. ) ;
#113 = VECTOR ( 'NONE', #90, 999.9999999999998900 ) ;
#114 = AXIS2_PLACEMENT_3D ( 'NONE', #145, #169, #44 ) ;
#115 = EDGE_LOOP ( 'NONE', ( #147, #61 ) ) ;
#116 = DIRECTION ( 'NONE',  ( 0.0000000000000000000, 0.0000000000000000000, 1.000000000000000000 ) ) ;
#117 = ORIENTED_EDGE ( 'NONE', *, *, #54, .T. ) ;
#118 = CC_DESIGN_PERSON_AND_ORGANIZATION_ASSIGNMENT ( #7, #224, ( #106 ) ) ;
#119 = DIRECTION ( 'NONE',  ( 0.0000000000000000000, 0.0000000000000000000, -1.000000000000000000 ) ) ;
#120 = CIRCLE ( 'NONE', #259, 50.00000000000000000 ) ;
#121 = ORIENTED_EDGE ( 'NONE', *, *, #157, .T. ) ;
#122 = CARTESIAN_POINT ( 'NONE',  ( 3.000000000000000000, 0.0000000000000000000, 0.0000000000000000000 ) ) ;
#123 = PERSON_AND_ORGANIZATION_ROLE ( 'classification_officer' ) ;
#124 = PRODUCT_RELATED_PRODUCT_CATEGORY ( 'detail', '', ( #199 ) ) ;
#125 = COORDINATED_UNIVERSAL_TIME_OFFSET ( 5, 0, .BEHIND. ) ;
#126 = VERTEX_POINT ( 'NONE', #138 ) ;
#127 = DIRECTION ( 'NONE',  ( -1.000000000000000000, 0.0000000000000000000, 0.0000000000000000000 ) ) ;
#128 = DIRECTION ( 'NONE',  ( 0.0000000000000000000, 0.0000000000000000000, 1.000000000000000000 ) ) ;
#129 = MANIFOLD_SOLID_BREP ( 'Chamfer1', #105 ) ;
#130 = CALENDAR_DATE ( 2019, 10, 1 ) ;
#131 = AXIS2_PLACEMENT_3D ( 'NONE', #17, #204, #227 ) ;
#132 = LOCAL_TIME ( 14, 38, 1.000000000000000000, #240 ) ;
#133 = ORIENTED_EDGE ( 'NONE', *, *, #144, .F. ) ;
#134 = FACE_OUTER_BOUND ( 'NONE', #62, .T. ) ;
#135 = PERSON_AND_ORGANIZATION ( #14, #89 ) ;
#136 = DIRECTION ( 'NONE',  ( -1.000000000000000000, 0.0000000000000000000, 0.0000000000000000000 ) ) ;
#137 = CARTESIAN_POINT ( 'NONE',  ( 2.750000000000020900, 0.0000000000000000000, 50.00000000000000000 ) ) ;
#138 = CARTESIAN_POINT ( 'NONE',  ( -3.000000000000000000, 0.0000000000000000000, -49.75000000000000700 ) ) ;
#139 = APPROVAL ( #68, 'UNSPECIFIED' ) ;
#140 = CARTESIAN_POINT ( 'NONE',  ( -2.750000000000006700, 0.0000000000000000000, 0.0000000000000000000 ) ) ;
#141 = CARTESIAN_POINT ( 'NONE',  ( -3.000000000000000000, 0.0000000000000000000, 0.0000000000000000000 ) ) ;
#142 = ORIENTED_EDGE ( 'NONE', *, *, #218, .T. ) ;
#143 = DIRECTION ( 'NONE',  ( 1.000000000000000000, -0.0000000000000000000, -0.0000000000000000000 ) ) ;
#144 = EDGE_CURVE ( 'NONE', #32, #251, #120, .T. ) ;
#145 = CARTESIAN_POINT ( 'NONE',  ( 3.000000000000000000, 0.0000000000000000000, 0.0000000000000000000 ) ) ;
#146 = ADVANCED_FACE ( 'NONE', ( #69 ), #52, .T. ) ;
#147 = ORIENTED_EDGE ( 'NONE', *, *, #155, .T. ) ;
#148 = DIRECTION ( 'NONE',  ( 1.000000000000000000, -0.0000000000000000000, -0.0000000000000000000 ) ) ;
#149 = APPLICATION_PROTOCOL_DEFINITION ( 'international standard', 'config_control_design', 1994, #70 ) ;
#150 = PERSON_AND_ORGANIZATION ( #14, #89 ) ;
#151 = VERTEX_POINT ( 'NONE', #99 ) ;
#152 = ADVANCED_FACE ( 'NONE', ( #3 ), #256, .T. ) ;
#153 = CIRCLE ( 'NONE', #77, 50.00000000000000000 ) ;
#154 = DIRECTION ( 'NONE',  ( 0.0000000000000000000, 0.0000000000000000000, -1.000000000000000000 ) ) ;
#155 = EDGE_CURVE ( 'NONE', #126, #235, #20, .T. ) ;
#156 = EDGE_LOOP ( 'NONE', ( #86, #247 ) ) ;
#157 = EDGE_CURVE ( 'NONE', #151, #32, #170, .T. ) ;
#158 = PLANE ( 'NONE',  #228 ) ;
#159 = CALENDAR_DATE ( 2019, 10, 1 ) ;
#160 = ORIENTED_EDGE ( 'NONE', *, *, #43, .F. ) ;
#161 = DIRECTION ( 'NONE',  ( 0.0000000000000000000, 0.0000000000000000000, -1.000000000000000000 ) ) ;
#162 = DIRECTION ( 'NONE',  ( 0.0000000000000000000, 0.0000000000000000000, -1.000000000000000000 ) ) ;
#163 = VECTOR ( 'NONE', #205, 1000.000000000000100 ) ;
#164 = ORIENTED_EDGE ( 'NONE', *, *, #233, .T. ) ;
#165 = DIRECTION ( 'NONE',  ( -0.7071067811865574500, 0.0000000000000000000, 0.7071067811865376900 ) ) ;
#166 = CARTESIAN_POINT ( 'NONE',  ( 3.000000000000000000, 0.0000000000000000000, 0.0000000000000000000 ) ) ;
#167 = APPROVAL_PERSON_ORGANIZATION ( #85, #239, #51 ) ;
#168 = ORIENTED_EDGE ( 'NONE', *, *, #43, .T. ) ;
#169 = DIRECTION ( 'NONE',  ( -1.000000000000000000, 0.0000000000000000000, 0.0000000000000000000 ) ) ;
#170 = LINE ( 'NONE', #33, #220 ) ;
#171 = AXIS2_PLACEMENT_3D ( 'NONE', #31, #222, #245 ) ;
#172 = DIRECTION ( 'NONE',  ( 1.000000000000000000, 0.0000000000000000000, 0.0000000000000000000 ) ) ;
#173 = ADVANCED_BREP_SHAPE_REPRESENTATION ( 'Web Model 11856_11856', ( #129, #72 ), #23 ) ;
#174 = EDGE_CURVE ( 'NONE', #151, #29, #223, .T. ) ;
#175 = ORIENTED_EDGE ( 'NONE', *, *, #248, .F. ) ;
#176 = EDGE_CURVE ( 'NONE', #251, #32, #263, .T. ) ;
#177 = CIRCLE ( 'NONE', #103, 49.75000000000000700 ) ;
#178 = DIRECTION ( 'NONE',  ( -1.000000000000000000, -0.0000000000000000000, -0.0000000000000000000 ) ) ;
#179 = DATE_AND_TIME ( #78, #219 ) ;
#180 = ORIENTED_EDGE ( 'NONE', *, *, #144, .T. ) ;
#181 = FACE_OUTER_BOUND ( 'NONE', #79, .T. ) ;
#182 = AXIS2_PLACEMENT_3D ( 'NONE', #195, #13, #183 ) ;
#183 = DIRECTION ( 'NONE',  ( 0.0000000000000000000, 0.0000000000000000000, 1.000000000000000000 ) ) ;
#184 = EDGE_LOOP ( 'NONE', ( #237, #121, #180, #8 ) ) ;
#185 = DESIGN_CONTEXT ( 'detailed design', #46, 'design' ) ;
#186 = AXIS2_PLACEMENT_3D ( 'NONE', #141, #267, #101 ) ;
#187 = DIRECTION ( 'NONE',  ( 0.0000000000000000000, 0.0000000000000000000, -1.000000000000000000 ) ) ;
#188 = MECHANICAL_CONTEXT ( 'NONE', #70, 'mechanical' ) ;
#189 = LOCAL_TIME ( 14, 38, 1.000000000000000000, #234 ) ;
#190 = ORIENTED_EDGE ( 'NONE', *, *, #254, .T. ) ;
#191 = CC_DESIGN_APPROVAL ( #139, ( #5 ) ) ;
#192 = COORDINATED_UNIVERSAL_TIME_OFFSET ( 5, 0, .BEHIND. ) ;
#193 = ORIENTED_EDGE ( 'NONE', *, *, #45, .F. ) ;
#194 = CALENDAR_DATE ( 2019, 10, 1 ) ;
#195 = CARTESIAN_POINT ( 'NONE',  ( 3.000000000000000000, 0.0000000000000000000, 0.0000000000000000000 ) ) ;
#196 = VECTOR ( 'NONE', #97, 1000.000000000000100 ) ;
#197 = DIRECTION ( 'NONE',  ( 0.0000000000000000000, 0.0000000000000000000, 1.000000000000000000 ) ) ;
#198 = APPROVAL_ROLE ( '' ) ;
#199 = PRODUCT ( 'Web Model 11856_11856', 'Web Model 11856_11856', '', ( #188 ) ) ;
#200 = FACE_OUTER_BOUND ( 'NONE', #210, .T. ) ;
#201 = EDGE_LOOP ( 'NONE', ( #231, #4, #117, #82 ) ) ;
#202 = CC_DESIGN_DATE_AND_TIME_ASSIGNMENT ( #212, #100, ( #21 ) ) ;
#203 = PERSON_AND_ORGANIZATION_ROLE ( 'creator' ) ;
#204 = DIRECTION ( 'NONE',  ( 1.000000000000000000, 0.0000000000000000000, 0.0000000000000000000 ) ) ;
#205 = DIRECTION ( 'NONE',  ( 0.7071067811865474600, 8.659560562354932900E-017, 0.7071067811865474600 ) ) ;
#206 = APPROVAL_PERSON_ORGANIZATION ( #135, #96, #198 ) ;
#207 = LINE ( 'NONE', #60, #113 ) ;
#208 = CC_DESIGN_PERSON_AND_ORGANIZATION_ASSIGNMENT ( #41, #203, ( #5 ) ) ;
#209 = VECTOR ( 'NONE', #165, 999.9999999999998900 ) ;
#210 = EDGE_LOOP ( 'NONE', ( #216, #39, #190, #11 ) ) ;
#211 = PRODUCT_DEFINITION_SHAPE ( 'NONE', 'NONE',  #5 ) ;
#212 = DATE_AND_TIME ( #1, #132 ) ;
#213 = VERTEX_POINT ( 'NONE', #12 ) ;
#214 = AXIS2_PLACEMENT_3D ( 'NONE', #19, #143, #87 ) ;
#215 = CONICAL_SURFACE ( 'NONE', #114, 49.75000000000002800, 0.7853981633974344000 ) ;
#216 = ORIENTED_EDGE ( 'NONE', *, *, #218, .F. ) ;
#217 = CARTESIAN_POINT ( 'NONE',  ( 3.000000000000000000, 0.0000000000000000000, 0.0000000000000000000 ) ) ;
#218 = EDGE_CURVE ( 'NONE', #213, #151, #207, .T. ) ;
#219 = LOCAL_TIME ( 14, 38, 1.000000000000000000, #112 ) ;
#220 = VECTOR ( 'NONE', #266, 1000.000000000000000 ) ;
#221 = CARTESIAN_POINT ( 'NONE',  ( 3.000000000000000000, 0.0000000000000000000, 0.0000000000000000000 ) ) ;
#222 = DIRECTION ( 'NONE',  ( 1.000000000000000000, -0.0000000000000000000, -0.0000000000000000000 ) ) ;
#223 = CIRCLE ( 'NONE', #275, 50.00000000000000000 ) ;
#224 = PERSON_AND_ORGANIZATION_ROLE ( 'design_supplier' ) ;
#225 = CC_DESIGN_DATE_AND_TIME_ASSIGNMENT ( #269, #2, ( #5 ) ) ;
#226 = CARTESIAN_POINT ( 'NONE',  ( -2.750000000000006700, 6.123233995736766100E-015, 50.00000000000000000 ) ) ;
#227 = DIRECTION ( 'NONE',  ( 0.0000000000000000000, 0.0000000000000000000, -1.000000000000000000 ) ) ;
#228 = AXIS2_PLACEMENT_3D ( 'NONE', #221, #83, #162 ) ;
#229 = CARTESIAN_POINT ( 'NONE',  ( -3.000000000000000000, 6.107925910747424200E-015, 49.75000000000000700 ) ) ;
#230 = ADVANCED_FACE ( 'NONE', ( #200 ), #215, .T. ) ;
#231 = ORIENTED_EDGE ( 'NONE', *, *, #157, .F. ) ;
#232 = APPLICATION_PROTOCOL_DEFINITION ( 'international standard', 'config_control_design', 1994, #46 ) ;
#233 = EDGE_CURVE ( 'NONE', #235, #251, #246, .T. ) ;
#234 = COORDINATED_UNIVERSAL_TIME_OFFSET ( 5, 0, .BEHIND. ) ;
#235 = VERTEX_POINT ( 'NONE', #229 ) ;
#236 = LOCAL_TIME ( 14, 38, 1.000000000000000000, #192 ) ;
#237 = ORIENTED_EDGE ( 'NONE', *, *, #59, .T. ) ;
#238 = CARTESIAN_POINT ( 'NONE',  ( -3.000000000000000000, 0.0000000000000000000, 0.0000000000000000000 ) ) ;
#239 = APPROVAL ( #27, 'UNSPECIFIED' ) ;
#240 = COORDINATED_UNIVERSAL_TIME_OFFSET ( 5, 0, .BEHIND. ) ;
#241 = DIRECTION ( 'NONE',  ( -1.000000000000000000, -0.0000000000000000000, -0.0000000000000000000 ) ) ;
#242 = EDGE_CURVE ( 'NONE', #65, #213, #57, .T. ) ;
#243 = VECTOR ( 'NONE', #178, 1000.000000000000000 ) ;
#244 = DIRECTION ( 'NONE',  ( 1.000000000000000000, -0.0000000000000000000, -0.0000000000000000000 ) ) ;
#245 = DIRECTION ( 'NONE',  ( 0.0000000000000000000, 0.0000000000000000000, -1.000000000000000000 ) ) ;
#246 = LINE ( 'NONE', #226, #163 ) ;
#247 = ORIENTED_EDGE ( 'NONE', *, *, #248, .T. ) ;
#248 = EDGE_CURVE ( 'NONE', #213, #65, #50, .T. ) ;
#249 = CARTESIAN_POINT ( 'NONE',  ( -2.750000000000006700, 0.0000000000000000000, 0.0000000000000000000 ) ) ;
#250 = CARTESIAN_POINT ( 'NONE',  ( 0.0000000000000000000, 0.0000000000000000000, 0.0000000000000000000 ) ) ;
#251 = VERTEX_POINT ( 'NONE', #272 ) ;
#252 = ADVANCED_FACE ( 'NONE', ( #181 ), #110, .T. ) ;
#253 =( NAMED_UNIT ( * ) PLANE_ANGLE_UNIT ( ) SI_UNIT ( $, .RADIAN. ) );
#254 = EDGE_CURVE ( 'NONE', #65, #29, #270, .T. ) ;
#255 = APPROVAL_DATE_TIME ( #73, #96 ) ;
#256 = CYLINDRICAL_SURFACE ( 'NONE', #91, 50.00000000000000000 ) ;
#257 = SHAPE_DEFINITION_REPRESENTATION ( #211, #173 ) ;
#258 = ORIENTED_EDGE ( 'NONE', *, *, #176, .F. ) ;
#259 = AXIS2_PLACEMENT_3D ( 'NONE', #140, #244, #119 ) ;
#260 = CARTESIAN_POINT ( 'NONE',  ( 3.000000000000000000, 0.0000000000000000000, 50.00000000000000000 ) ) ;
#261 = FACE_OUTER_BOUND ( 'NONE', #47, .T. ) ;
#262 = DIRECTION ( 'NONE',  ( -1.000000000000000000, -0.0000000000000000000, -0.0000000000000000000 ) ) ;
#263 = CIRCLE ( 'NONE', #265, 50.00000000000000000 ) ;
#264 = ORIENTED_EDGE ( 'NONE', *, *, #254, .F. ) ;
#265 = AXIS2_PLACEMENT_3D ( 'NONE', #249, #148, #187 ) ;
#266 = DIRECTION ( 'NONE',  ( -1.000000000000000000, -0.0000000000000000000, -0.0000000000000000000 ) ) ;
#267 = DIRECTION ( 'NONE',  ( -1.000000000000000000, -0.0000000000000000000, -0.0000000000000000000 ) ) ;
#268 = DIRECTION ( 'NONE',  ( 0.0000000000000000000, 0.0000000000000000000, -1.000000000000000000 ) ) ;
#269 = DATE_AND_TIME ( #194, #189 ) ;
#270 = LINE ( 'NONE', #18, #209 ) ;
#271 = AXIS2_PLACEMENT_3D ( 'NONE', #63, #104, #161 ) ;
#272 = CARTESIAN_POINT ( 'NONE',  ( -2.750000000000006700, 0.0000000000000000000, 50.00000000000000000 ) ) ;
#273 = PERSON_AND_ORGANIZATION_ROLE ( 'design_owner' ) ;
#274 = LINE ( 'NONE', #80, #196 ) ;
#275 = AXIS2_PLACEMENT_3D ( 'NONE', #64, #127, #268 ) ;
ENDSEC;
END-ISO-10303-21;
