ISO-10303-21;
HEADER;
FILE_DESCRIPTION (( 'STEP AP203' ),
    '1' );
FILE_NAME ('34427_37009.step',
    '2017-09-06T15:33:11',
    ( '' ),
    ( '' ),
    'SwSTEP 2.0',
    'SolidWorks 2016',
    '' );
FILE_SCHEMA (( 'CONFIG_CONTROL_DESIGN' ));
ENDSEC;

DATA;
#1 = AXIS2_PLACEMENT_3D ( 'NONE', #20, #5, #23 ) ;
#2 = CC_DESIGN_PERSON_AND_ORGANIZATION_ASSIGNMENT ( #34, #33, ( #125 ) ) ;
#3 = LOCAL_TIME ( 11, 33, 11.00000000000000000, #72 ) ;
#4 = CLOSED_SHELL ( 'NONE', ( #37, #22, #122, #139 ) ) ;
#5 = DIRECTION ( 'NONE',  ( 0.0000000000000000000, 0.0000000000000000000, 1.000000000000000000 ) ) ;
#6 = DATE_AND_TIME ( #76, #107 ) ;
#7 = CARTESIAN_POINT ( 'NONE',  ( -25.00000000000000000, 0.0000000000000000000, 1.000000000000000000 ) ) ;
#8 = CC_DESIGN_PERSON_AND_ORGANIZATION_ASSIGNMENT ( #153, #163, ( #130 ) ) ;
#9 = DIRECTION ( 'NONE',  ( 1.000000000000000000, 0.0000000000000000000, -0.0000000000000000000 ) ) ;
#10 = SHAPE_DEFINITION_REPRESENTATION ( #110, #172 ) ;
#11 = EDGE_CURVE ( 'NONE', #18, #12, #80, .T. ) ;
#12 = VERTEX_POINT ( 'NONE', #121 ) ;
#13 = CARTESIAN_POINT ( 'NONE',  ( 0.0000000000000000000, 0.0000000000000000000, 0.0000000000000000000 ) ) ;
#14 = AXIS2_PLACEMENT_3D ( 'NONE', #127, #59, #26 ) ;
#15 = CALENDAR_DATE ( 2017, 6, 9 ) ;
#16 = LINE ( 'NONE', #7, #167 ) ;
#17 = VERTEX_POINT ( 'NONE', #136 ) ;
#18 = VERTEX_POINT ( 'NONE', #83 ) ;
#19 = APPROVAL_PERSON_ORGANIZATION ( #36, #113, #133 ) ;
#20 = CARTESIAN_POINT ( 'NONE',  ( 0.0000000000000000000, 0.0000000000000000000, 1.000000000000000000 ) ) ;
#21 = CIRCLE ( 'NONE', #14, 25.00000000000000000 ) ;
#22 = ADVANCED_FACE ( 'NONE', ( #148 ), #154, .T. ) ;
#23 = DIRECTION ( 'NONE',  ( 1.000000000000000000, 0.0000000000000000000, 0.0000000000000000000 ) ) ;
#24 = PRODUCT_RELATED_PRODUCT_CATEGORY ( 'detail', '', ( #29 ) ) ;
#25 = MANIFOLD_SOLID_BREP ( 'Boss-Extrude1', #4 ) ;
#26 = DIRECTION ( 'NONE',  ( 1.000000000000000000, 0.0000000000000000000, 0.0000000000000000000 ) ) ;
#27 = CC_DESIGN_DATE_AND_TIME_ASSIGNMENT ( #159, #65, ( #104 ) ) ;
#28 = PERSON_AND_ORGANIZATION ( #174, #94 ) ;
#29 = PRODUCT ( '34427_37009', '34427_37009', '', ( #52 ) ) ;
#30 = DIRECTION ( 'NONE',  ( 1.000000000000000000, 0.0000000000000000000, 0.0000000000000000000 ) ) ;
#31 = EDGE_CURVE ( 'NONE', #17, #152, #70, .T. ) ;
#32 = PERSON_AND_ORGANIZATION ( #174, #94 ) ;
#33 = PERSON_AND_ORGANIZATION_ROLE ( 'classification_officer' ) ;
#34 = PERSON_AND_ORGANIZATION ( #174, #94 ) ;
#35 = ORIENTED_EDGE ( 'NONE', *, *, #61, .F. ) ;
#36 = PERSON_AND_ORGANIZATION ( #174, #94 ) ;
#37 = ADVANCED_FACE ( 'NONE', ( #46 ), #126, .T. ) ;
#38 = CARTESIAN_POINT ( 'NONE',  ( 0.0000000000000000000, 0.0000000000000000000, 1.000000000000000000 ) ) ;
#39 = CALENDAR_DATE ( 2017, 6, 9 ) ;
#40 = DIRECTION ( 'NONE',  ( 1.000000000000000000, 0.0000000000000000000, -0.0000000000000000000 ) ) ;
#41 = DATE_TIME_ROLE ( 'classification_date' ) ;
#42 = CC_DESIGN_DATE_AND_TIME_ASSIGNMENT ( #6, #41, ( #125 ) ) ;
#43 = APPLICATION_CONTEXT ( 'configuration controlled 3d designs of mechanical parts and assemblies' ) ;
#44 = APPROVAL_STATUS ( 'not_yet_approved' ) ;
#45 = ORIENTED_EDGE ( 'NONE', *, *, #61, .T. ) ;
#46 = FACE_OUTER_BOUND ( 'NONE', #165, .T. ) ;
#47 = CC_DESIGN_PERSON_AND_ORGANIZATION_ASSIGNMENT ( #123, #77, ( #130 ) ) ;
#48 = APPROVAL ( #149, 'UNSPECIFIED' ) ;
#49 = PLANE ( 'NONE',  #92 ) ;
#50 = DIRECTION ( 'NONE',  ( -1.000000000000000000, 0.0000000000000000000, 0.0000000000000000000 ) ) ;
#51 = CARTESIAN_POINT ( 'NONE',  ( 25.00000000000000000, 3.061616997868383000E-015, 0.0000000000000000000 ) ) ;
#52 = MECHANICAL_CONTEXT ( 'NONE', #43, 'mechanical' ) ;
#53 = PERSON_AND_ORGANIZATION_ROLE ( 'design_owner' ) ;
#54 = EDGE_LOOP ( 'NONE', ( #135, #35 ) ) ;
#55 = CIRCLE ( 'NONE', #88, 25.00000000000000000 ) ;
#56 = PERSON_AND_ORGANIZATION ( #174, #94 ) ;
#57 = CALENDAR_DATE ( 2017, 6, 9 ) ;
#58 = DIRECTION ( 'NONE',  ( 1.000000000000000000, 0.0000000000000000000, 0.0000000000000000000 ) ) ;
#59 = DIRECTION ( 'NONE',  ( 0.0000000000000000000, 0.0000000000000000000, 1.000000000000000000 ) ) ;
#60 = DIRECTION ( 'NONE',  ( 0.0000000000000000000, 0.0000000000000000000, 1.000000000000000000 ) ) ;
#61 = EDGE_CURVE ( 'NONE', #152, #17, #55, .T. ) ;
#62 = COORDINATED_UNIVERSAL_TIME_OFFSET ( 5, 0, .BEHIND. ) ;
#63 = CARTESIAN_POINT ( 'NONE',  ( 0.0000000000000000000, 0.0000000000000000000, 0.0000000000000000000 ) ) ;
#64 = FACE_OUTER_BOUND ( 'NONE', #54, .T. ) ;
#65 = DATE_TIME_ROLE ( 'creation_date' ) ;
#66 = AXIS2_PLACEMENT_3D ( 'NONE', #156, #60, #86 ) ;
#67 = ORIENTED_EDGE ( 'NONE', *, *, #31, .T. ) ;
#68 = DIRECTION ( 'NONE',  ( 0.0000000000000000000, 0.0000000000000000000, 1.000000000000000000 ) ) ;
#69 = EDGE_CURVE ( 'NONE', #12, #18, #21, .T. ) ;
#70 = CIRCLE ( 'NONE', #66, 25.00000000000000000 ) ;
#71 = LOCAL_TIME ( 11, 33, 11.00000000000000000, #144 ) ;
#72 = COORDINATED_UNIVERSAL_TIME_OFFSET ( 5, 0, .BEHIND. ) ;
#73 = CARTESIAN_POINT ( 'NONE',  ( 0.0000000000000000000, 0.0000000000000000000, 1.000000000000000000 ) ) ;
#74 = AXIS2_PLACEMENT_3D ( 'NONE', #73, #87, #9 ) ;
#75 = CC_DESIGN_PERSON_AND_ORGANIZATION_ASSIGNMENT ( #32, #53, ( #29 ) ) ;
#76 = CALENDAR_DATE ( 2017, 6, 9 ) ;
#77 = PERSON_AND_ORGANIZATION_ROLE ( 'creator' ) ;
#78 = COORDINATED_UNIVERSAL_TIME_OFFSET ( 5, 0, .BEHIND. ) ;
#79 = PERSON_AND_ORGANIZATION ( #174, #94 ) ;
#80 = CIRCLE ( 'NONE', #1, 25.00000000000000000 ) ;
#81 = DATE_AND_TIME ( #15, #71 ) ;
#82 = AXIS2_PLACEMENT_3D ( 'NONE', #95, #96, #50 ) ;
#83 = CARTESIAN_POINT ( 'NONE',  ( 25.00000000000000000, 3.061616997868383000E-015, 1.000000000000000000 ) ) ;
#84 = CC_DESIGN_APPROVAL ( #143, ( #104 ) ) ;
#85 = DIRECTION ( 'NONE',  ( -1.000000000000000000, 0.0000000000000000000, 0.0000000000000000000 ) ) ;
#86 = DIRECTION ( 'NONE',  ( 1.000000000000000000, 0.0000000000000000000, 0.0000000000000000000 ) ) ;
#87 = DIRECTION ( 'NONE',  ( 0.0000000000000000000, 0.0000000000000000000, 1.000000000000000000 ) ) ;
#88 = AXIS2_PLACEMENT_3D ( 'NONE', #89, #68, #58 ) ;
#89 = CARTESIAN_POINT ( 'NONE',  ( 0.0000000000000000000, 0.0000000000000000000, 0.0000000000000000000 ) ) ;
#90 = CC_DESIGN_PERSON_AND_ORGANIZATION_ASSIGNMENT ( #28, #131, ( #104 ) ) ;
#91 = APPROVAL_ROLE ( '' ) ;
#92 = AXIS2_PLACEMENT_3D ( 'NONE', #63, #112, #40 ) ;
#93 = CC_DESIGN_APPROVAL ( #113, ( #130 ) ) ;
#94 = ORGANIZATION ( 'UNSPECIFIED', 'UNSPECIFIED', '' ) ;
#95 = CARTESIAN_POINT ( 'NONE',  ( 0.0000000000000000000, 0.0000000000000000000, 1.000000000000000000 ) ) ;
#96 = DIRECTION ( 'NONE',  ( -0.0000000000000000000, -0.0000000000000000000, -1.000000000000000000 ) ) ;
#97 = ORIENTED_EDGE ( 'NONE', *, *, #160, .F. ) ;
#98 = CC_DESIGN_SECURITY_CLASSIFICATION ( #125, ( #130 ) ) ;
#99 = DIRECTION ( 'NONE',  ( -0.0000000000000000000, -0.0000000000000000000, -1.000000000000000000 ) ) ;
#100 = CARTESIAN_POINT ( 'NONE',  ( 25.00000000000000000, 3.061616997868383000E-015, 1.000000000000000000 ) ) ;
#101 = APPROVAL_ROLE ( '' ) ;
#102 = APPROVAL_PERSON_ORGANIZATION ( #79, #48, #101 ) ;
#103 = APPROVAL_STATUS ( 'not_yet_approved' ) ;
#104 = PRODUCT_DEFINITION ( 'UNKNOWN', '', #130, #142 ) ;
#105 = APPLICATION_CONTEXT ( 'configuration controlled 3d designs of mechanical parts and assemblies' ) ;
#106 = FACE_OUTER_BOUND ( 'NONE', #157, .T. ) ;
#107 = LOCAL_TIME ( 11, 33, 11.00000000000000000, #119 ) ;
#108 = APPROVAL_DATE_TIME ( #111, #48 ) ;
#109 = ORIENTED_EDGE ( 'NONE', *, *, #69, .F. ) ;
#110 = PRODUCT_DEFINITION_SHAPE ( 'NONE', 'NONE',  #104 ) ;
#111 = DATE_AND_TIME ( #57, #164 ) ;
#112 = DIRECTION ( 'NONE',  ( 0.0000000000000000000, 0.0000000000000000000, 1.000000000000000000 ) ) ;
#113 = APPROVAL ( #103, 'UNSPECIFIED' ) ;
#114 = VECTOR ( 'NONE', #175, 1000.000000000000000 ) ;
#115 =( NAMED_UNIT ( * ) SI_UNIT ( $, .STERADIAN. ) SOLID_ANGLE_UNIT ( ) );
#116 = AXIS2_PLACEMENT_3D ( 'NONE', #13, #134, #30 ) ;
#117 = ORIENTED_EDGE ( 'NONE', *, *, #69, .T. ) ;
#118 = EDGE_LOOP ( 'NONE', ( #169, #109, #162, #67 ) ) ;
#119 = COORDINATED_UNIVERSAL_TIME_OFFSET ( 5, 0, .BEHIND. ) ;
#120 = CC_DESIGN_APPROVAL ( #48, ( #125 ) ) ;
#121 = CARTESIAN_POINT ( 'NONE',  ( -25.00000000000000000, 0.0000000000000000000, 1.000000000000000000 ) ) ;
#122 = ADVANCED_FACE ( 'NONE', ( #106 ), #158, .T. ) ;
#123 = PERSON_AND_ORGANIZATION ( #174, #94 ) ;
#124 = DATE_AND_TIME ( #39, #146 ) ;
#125 = SECURITY_CLASSIFICATION ( '', '', #173 ) ;
#126 = CYLINDRICAL_SURFACE ( 'NONE', #82, 25.00000000000000000 ) ;
#127 = CARTESIAN_POINT ( 'NONE',  ( 0.0000000000000000000, 0.0000000000000000000, 1.000000000000000000 ) ) ;
#128 = APPROVAL_DATE_TIME ( #124, #113 ) ;
#129 = ORIENTED_EDGE ( 'NONE', *, *, #11, .F. ) ;
#130 = PRODUCT_DEFINITION_FORMATION_WITH_SPECIFIED_SOURCE ( 'ANY', '', #29, .NOT_KNOWN. ) ;
#131 = PERSON_AND_ORGANIZATION_ROLE ( 'creator' ) ;
#132 = APPLICATION_PROTOCOL_DEFINITION ( 'international standard', 'config_control_design', 1994, #43 ) ;
#133 = APPROVAL_ROLE ( '' ) ;
#134 = DIRECTION ( 'NONE',  ( 0.0000000000000000000, 0.0000000000000000000, 1.000000000000000000 ) ) ;
#135 = ORIENTED_EDGE ( 'NONE', *, *, #31, .F. ) ;
#136 = CARTESIAN_POINT ( 'NONE',  ( -25.00000000000000000, 0.0000000000000000000, 0.0000000000000000000 ) ) ;
#137 = DIRECTION ( 'NONE',  ( -0.0000000000000000000, -0.0000000000000000000, -1.000000000000000000 ) ) ;
#138 = ORIENTED_EDGE ( 'NONE', *, *, #11, .T. ) ;
#139 = ADVANCED_FACE ( 'NONE', ( #64 ), #49, .F. ) ;
#140 = EDGE_CURVE ( 'NONE', #18, #152, #171, .T. ) ;
#141 = CALENDAR_DATE ( 2017, 6, 9 ) ;
#142 = DESIGN_CONTEXT ( 'detailed design', #105, 'design' ) ;
#143 = APPROVAL ( #44, 'UNSPECIFIED' ) ;
#144 = COORDINATED_UNIVERSAL_TIME_OFFSET ( 5, 0, .BEHIND. ) ;
#145 = APPLICATION_PROTOCOL_DEFINITION ( 'international standard', 'config_control_design', 1994, #105 ) ;
#146 = LOCAL_TIME ( 11, 33, 11.00000000000000000, #78 ) ;
#147 =( GEOMETRIC_REPRESENTATION_CONTEXT ( 3 ) GLOBAL_UNCERTAINTY_ASSIGNED_CONTEXT ( ( #166 ) ) GLOBAL_UNIT_ASSIGNED_CONTEXT ( ( #161, #150, #115 ) ) REPRESENTATION_CONTEXT ( 'NONE', 'WORKASPACE' ) );
#148 = FACE_OUTER_BOUND ( 'NONE', #118, .T. ) ;
#149 = APPROVAL_STATUS ( 'not_yet_approved' ) ;
#150 =( NAMED_UNIT ( * ) PLANE_ANGLE_UNIT ( ) SI_UNIT ( $, .RADIAN. ) );
#151 = APPROVAL_DATE_TIME ( #81, #143 ) ;
#152 = VERTEX_POINT ( 'NONE', #51 ) ;
#153 = PERSON_AND_ORGANIZATION ( #174, #94 ) ;
#154 = CYLINDRICAL_SURFACE ( 'NONE', #170, 25.00000000000000000 ) ;
#155 = APPROVAL_PERSON_ORGANIZATION ( #56, #143, #91 ) ;
#156 = CARTESIAN_POINT ( 'NONE',  ( 0.0000000000000000000, 0.0000000000000000000, 0.0000000000000000000 ) ) ;
#157 = EDGE_LOOP ( 'NONE', ( #117, #138 ) ) ;
#158 = PLANE ( 'NONE',  #74 ) ;
#159 = DATE_AND_TIME ( #141, #3 ) ;
#160 = EDGE_CURVE ( 'NONE', #12, #17, #16, .T. ) ;
#161 =( LENGTH_UNIT ( ) NAMED_UNIT ( * ) SI_UNIT ( .MILLI., .METRE. ) );
#162 = ORIENTED_EDGE ( 'NONE', *, *, #160, .T. ) ;
#163 = PERSON_AND_ORGANIZATION_ROLE ( 'design_supplier' ) ;
#164 = LOCAL_TIME ( 11, 33, 11.00000000000000000, #62 ) ;
#165 = EDGE_LOOP ( 'NONE', ( #129, #168, #45, #97 ) ) ;
#166 = UNCERTAINTY_MEASURE_WITH_UNIT (LENGTH_MEASURE( 1.000000000000000100E-005 ), #161, 'distance_accuracy_value', 'NONE');
#167 = VECTOR ( 'NONE', #99, 1000.000000000000000 ) ;
#168 = ORIENTED_EDGE ( 'NONE', *, *, #140, .T. ) ;
#169 = ORIENTED_EDGE ( 'NONE', *, *, #140, .F. ) ;
#170 = AXIS2_PLACEMENT_3D ( 'NONE', #38, #137, #85 ) ;
#171 = LINE ( 'NONE', #100, #114 ) ;
#172 = ADVANCED_BREP_SHAPE_REPRESENTATION ( '34427_37009', ( #25, #116 ), #147 ) ;
#173 = SECURITY_CLASSIFICATION_LEVEL ( 'unclassified' ) ;
#174 = PERSON ( 'UNSPECIFIED', 'UNSPECIFIED', 'UNSPECIFIED', ('UNSPECIFIED'), ('UNSPECIFIED'), ('UNSPECIFIED') ) ;
#175 = DIRECTION ( 'NONE',  ( -0.0000000000000000000, -0.0000000000000000000, -1.000000000000000000 ) ) ;
ENDSEC;
END-ISO-10303-21;
