ISO-10303-21;
HEADER;
FILE_DESCRIPTION (( 'STEP AP203' ),
    '1' );
FILE_NAME ('Web Model 43772_43773.step',
    '2018-03-12T19:19:50',
    ( '' ),
    ( '' ),
    'SwSTEP 2.0',
    'SolidWorks 2016',
    '' );
FILE_SCHEMA (( 'CONFIG_CONTROL_DESIGN' ));
ENDSEC;

DATA;
#1 = CC_DESIGN_PERSON_AND_ORGANIZATION_ASSIGNMENT ( #114, #146, ( #181 ) ) ;
#2 = VECTOR ( 'NONE', #23, 1000.000000000000000 ) ;
#3 = PERSON_AND_ORGANIZATION ( #199, #159 ) ;
#4 = UNCERTAINTY_MEASURE_WITH_UNIT (LENGTH_MEASURE( 1.000000000000000100E-005 ), #102, 'distance_accuracy_value', 'NONE');
#5 = ADVANCED_FACE ( 'NONE', ( #136 ), #95, .F. ) ;
#6 = VECTOR ( 'NONE', #174, 1000.000000000000000 ) ;
#7 = CALENDAR_DATE ( 2018, 12, 3 ) ;
#8 = DIRECTION ( 'NONE',  ( 0.0000000000000000000, 0.0000000000000000000, -1.000000000000000000 ) ) ;
#9 = EDGE_CURVE ( 'NONE', #20, #151, #122, .T. ) ;
#10 = CARTESIAN_POINT ( 'NONE',  ( 3.000000000000000000, 6.350000000000000500, -6.349999999999999600 ) ) ;
#11 = LINE ( 'NONE', #118, #187 ) ;
#12 = ORIENTED_EDGE ( 'NONE', *, *, #202, .T. ) ;
#13 = PRODUCT_DEFINITION ( 'UNKNOWN', '', #97, #82 ) ;
#14 = CARTESIAN_POINT ( 'NONE',  ( 3.000000000000000000, -6.349999999999997900, 6.350000000000000500 ) ) ;
#15 = DIRECTION ( 'NONE',  ( 0.0000000000000000000, 0.0000000000000000000, -1.000000000000000000 ) ) ;
#16 = APPROVAL_PERSON_ORGANIZATION ( #222, #117, #65 ) ;
#17 = APPLICATION_PROTOCOL_DEFINITION ( 'international standard', 'config_control_design', 1994, #160 ) ;
#18 = VECTOR ( 'NONE', #127, 1000.000000000000000 ) ;
#19 = LOCAL_TIME ( 15, 19, 50.00000000000000000, #78 ) ;
#20 = VERTEX_POINT ( 'NONE', #10 ) ;
#21 = APPROVAL_ROLE ( '' ) ;
#22 = CC_DESIGN_PERSON_AND_ORGANIZATION_ASSIGNMENT ( #27, #195, ( #97 ) ) ;
#23 = DIRECTION ( 'NONE',  ( -1.000000000000000000, -0.0000000000000000000, -0.0000000000000000000 ) ) ;
#24 = EDGE_LOOP ( 'NONE', ( #33, #55, #64, #107 ) ) ;
#25 = DIRECTION ( 'NONE',  ( 0.0000000000000000000, -1.000000000000000000, 2.048885995248197400E-016 ) ) ;
#26 = COORDINATED_UNIVERSAL_TIME_OFFSET ( 5, 0, .BEHIND. ) ;
#27 = PERSON_AND_ORGANIZATION ( #199, #159 ) ;
#28 = ORIENTED_EDGE ( 'NONE', *, *, #193, .F. ) ;
#29 = APPROVAL ( #83, 'UNSPECIFIED' ) ;
#30 = ORIENTED_EDGE ( 'NONE', *, *, #110, .T. ) ;
#31 = PLANE ( 'NONE',  #198 ) ;
#32 = LINE ( 'NONE', #14, #196 ) ;
#33 = ORIENTED_EDGE ( 'NONE', *, *, #193, .T. ) ;
#34 = DIRECTION ( 'NONE',  ( -0.0000000000000000000, -0.0000000000000000000, 1.000000000000000000 ) ) ;
#35 = CARTESIAN_POINT ( 'NONE',  ( 3.000000000000000000, 6.350000000000000500, -6.349999999999999600 ) ) ;
#36 = SECURITY_CLASSIFICATION ( '', '', #163 ) ;
#37 = LINE ( 'NONE', #154, #2 ) ;
#38 = PERSON_AND_ORGANIZATION ( #199, #159 ) ;
#39 = ORIENTED_EDGE ( 'NONE', *, *, #185, .T. ) ;
#40 = VERTEX_POINT ( 'NONE', #158 ) ;
#41 = APPLICATION_CONTEXT ( 'configuration controlled 3d designs of mechanical parts and assemblies' ) ;
#42 = VECTOR ( 'NONE', #8, 1000.000000000000000 ) ;
#43 = DIRECTION ( 'NONE',  ( 1.000000000000000000, 0.0000000000000000000, 0.0000000000000000000 ) ) ;
#44 =( NAMED_UNIT ( * ) PLANE_ANGLE_UNIT ( ) SI_UNIT ( $, .RADIAN. ) );
#45 = CC_DESIGN_APPROVAL ( #29, ( #13 ) ) ;
#46 = DATE_AND_TIME ( #90, #148 ) ;
#47 = ORIENTED_EDGE ( 'NONE', *, *, #185, .F. ) ;
#48 = ADVANCED_FACE ( 'NONE', ( #99 ), #225, .F. ) ;
#49 = EDGE_CURVE ( 'NONE', #73, #40, #182, .T. ) ;
#50 = CALENDAR_DATE ( 2018, 12, 3 ) ;
#51 = EDGE_CURVE ( 'NONE', #214, #111, #77, .T. ) ;
#52 = ADVANCED_FACE ( 'NONE', ( #226 ), #237, .T. ) ;
#53 = PRODUCT_RELATED_PRODUCT_CATEGORY ( 'detail', '', ( #181 ) ) ;
#54 = ORIENTED_EDGE ( 'NONE', *, *, #171, .T. ) ;
#55 = ORIENTED_EDGE ( 'NONE', *, *, #51, .F. ) ;
#56 = FACE_OUTER_BOUND ( 'NONE', #142, .T. ) ;
#57 = DIRECTION ( 'NONE',  ( 0.0000000000000000000, -1.000000000000000000, 0.0000000000000000000 ) ) ;
#58 = DIRECTION ( 'NONE',  ( -0.0000000000000000000, 1.000000000000000000, 0.0000000000000000000 ) ) ;
#59 = CARTESIAN_POINT ( 'NONE',  ( -3.000000000000000000, 0.0000000000000000000, 0.0000000000000000000 ) ) ;
#60 = VECTOR ( 'NONE', #208, 1000.000000000000000 ) ;
#61 = CC_DESIGN_PERSON_AND_ORGANIZATION_ASSIGNMENT ( #3, #192, ( #13 ) ) ;
#62 = EDGE_LOOP ( 'NONE', ( #227, #112, #104, #28 ) ) ;
#63 = PERSON_AND_ORGANIZATION ( #199, #159 ) ;
#64 = ORIENTED_EDGE ( 'NONE', *, *, #70, .F. ) ;
#65 = APPROVAL_ROLE ( '' ) ;
#66 = APPROVAL_STATUS ( 'not_yet_approved' ) ;
#67 = VERTEX_POINT ( 'NONE', #81 ) ;
#68 = CARTESIAN_POINT ( 'NONE',  ( 0.0000000000000000000, 0.0000000000000000000, 0.0000000000000000000 ) ) ;
#69 = DIRECTION ( 'NONE',  ( 0.0000000000000000000, -2.048885995248197400E-016, 1.000000000000000000 ) ) ;
#70 = EDGE_CURVE ( 'NONE', #73, #214, #32, .T. ) ;
#71 = LOCAL_TIME ( 15, 19, 50.00000000000000000, #152 ) ;
#72 = CC_DESIGN_PERSON_AND_ORGANIZATION_ASSIGNMENT ( #38, #133, ( #36 ) ) ;
#73 = VERTEX_POINT ( 'NONE', #139 ) ;
#74 = CC_DESIGN_DATE_AND_TIME_ASSIGNMENT ( #134, #101, ( #13 ) ) ;
#75 = CARTESIAN_POINT ( 'NONE',  ( 3.000000000000000000, 6.350000000000000500, -6.349999999999999600 ) ) ;
#76 = AXIS2_PLACEMENT_3D ( 'NONE', #229, #58, #137 ) ;
#77 = LINE ( 'NONE', #232, #230 ) ;
#78 = COORDINATED_UNIVERSAL_TIME_OFFSET ( 5, 0, .BEHIND. ) ;
#79 = ORIENTED_EDGE ( 'NONE', *, *, #110, .F. ) ;
#80 = CARTESIAN_POINT ( 'NONE',  ( 3.000000000000000000, -6.349999999999997900, 6.350000000000000500 ) ) ;
#81 = CARTESIAN_POINT ( 'NONE',  ( -3.000000000000000000, 6.350000000000000500, 6.349999999999997900 ) ) ;
#82 = DESIGN_CONTEXT ( 'detailed design', #160, 'design' ) ;
#83 = APPROVAL_STATUS ( 'not_yet_approved' ) ;
#84 = DATE_TIME_ROLE ( 'classification_date' ) ;
#85 = LINE ( 'NONE', #108, #42 ) ;
#86 = ADVANCED_BREP_SHAPE_REPRESENTATION ( 'Web Model 43772_43773', ( #176, #206 ), #109 ) ;
#87 = SHAPE_DEFINITION_REPRESENTATION ( #124, #86 ) ;
#88 = CARTESIAN_POINT ( 'NONE',  ( 3.000000000000000000, 6.350000000000000500, 6.349999999999997900 ) ) ;
#89 = LOCAL_TIME ( 15, 19, 50.00000000000000000, #131 ) ;
#90 = CALENDAR_DATE ( 2018, 12, 3 ) ;
#91 = EDGE_LOOP ( 'NONE', ( #39, #211, #30, #130 ) ) ;
#92 = AXIS2_PLACEMENT_3D ( 'NONE', #125, #173, #15 ) ;
#93 = COORDINATED_UNIVERSAL_TIME_OFFSET ( 5, 0, .BEHIND. ) ;
#94 = ORIENTED_EDGE ( 'NONE', *, *, #223, .F. ) ;
#95 = PLANE ( 'NONE',  #76 ) ;
#96 = DIRECTION ( 'NONE',  ( 0.0000000000000000000, -0.0000000000000000000, -1.000000000000000000 ) ) ;
#97 = PRODUCT_DEFINITION_FORMATION_WITH_SPECIFIED_SOURCE ( 'ANY', '', #181, .NOT_KNOWN. ) ;
#98 = PERSON_AND_ORGANIZATION ( #199, #159 ) ;
#99 = FACE_OUTER_BOUND ( 'NONE', #62, .T. ) ;
#100 = AXIS2_PLACEMENT_3D ( 'NONE', #88, #221, #224 ) ;
#101 = DATE_TIME_ROLE ( 'creation_date' ) ;
#102 =( LENGTH_UNIT ( ) NAMED_UNIT ( * ) SI_UNIT ( .MILLI., .METRE. ) );
#103 = LINE ( 'NONE', #123, #184 ) ;
#104 = ORIENTED_EDGE ( 'NONE', *, *, #202, .F. ) ;
#105 = LINE ( 'NONE', #35, #6 ) ;
#106 = CARTESIAN_POINT ( 'NONE',  ( 3.000000000000000000, 6.350000000000000500, 6.349999999999997900 ) ) ;
#107 = ORIENTED_EDGE ( 'NONE', *, *, #49, .T. ) ;
#108 = CARTESIAN_POINT ( 'NONE',  ( -3.000000000000000000, -6.349999999999997900, 6.350000000000000500 ) ) ;
#109 =( GEOMETRIC_REPRESENTATION_CONTEXT ( 3 ) GLOBAL_UNCERTAINTY_ASSIGNED_CONTEXT ( ( #4 ) ) GLOBAL_UNIT_ASSIGNED_CONTEXT ( ( #102, #44, #113 ) ) REPRESENTATION_CONTEXT ( 'NONE', 'WORKASPACE' ) );
#110 = EDGE_CURVE ( 'NONE', #214, #20, #105, .T. ) ;
#111 = VERTEX_POINT ( 'NONE', #141 ) ;
#112 = ORIENTED_EDGE ( 'NONE', *, *, #212, .F. ) ;
#113 =( NAMED_UNIT ( * ) SI_UNIT ( $, .STERADIAN. ) SOLID_ANGLE_UNIT ( ) );
#114 = PERSON_AND_ORGANIZATION ( #199, #159 ) ;
#115 = APPROVAL_DATE_TIME ( #156, #234 ) ;
#116 = APPLICATION_PROTOCOL_DEFINITION ( 'international standard', 'config_control_design', 1994, #41 ) ;
#117 = APPROVAL ( #161, 'UNSPECIFIED' ) ;
#118 = CARTESIAN_POINT ( 'NONE',  ( -3.000000000000000000, 6.350000000000000500, 6.349999999999997900 ) ) ;
#119 = APPROVAL_PERSON_ORGANIZATION ( #63, #29, #132 ) ;
#120 = ORIENTED_EDGE ( 'NONE', *, *, #51, .T. ) ;
#121 = CC_DESIGN_SECURITY_CLASSIFICATION ( #36, ( #97 ) ) ;
#122 = LINE ( 'NONE', #155, #207 ) ;
#123 = CARTESIAN_POINT ( 'NONE',  ( -3.000000000000000000, 6.350000000000000500, 6.349999999999997900 ) ) ;
#124 = PRODUCT_DEFINITION_SHAPE ( 'NONE', 'NONE',  #13 ) ;
#125 = CARTESIAN_POINT ( 'NONE',  ( 3.000000000000000000, 0.0000000000000000000, 0.0000000000000000000 ) ) ;
#126 = DATE_AND_TIME ( #194, #89 ) ;
#127 = DIRECTION ( 'NONE',  ( -1.000000000000000000, -0.0000000000000000000, -0.0000000000000000000 ) ) ;
#128 = CC_DESIGN_PERSON_AND_ORGANIZATION_ASSIGNMENT ( #98, #178, ( #97 ) ) ;
#129 = CC_DESIGN_APPROVAL ( #117, ( #97 ) ) ;
#130 = ORIENTED_EDGE ( 'NONE', *, *, #9, .T. ) ;
#131 = COORDINATED_UNIVERSAL_TIME_OFFSET ( 5, 0, .BEHIND. ) ;
#132 = APPROVAL_ROLE ( '' ) ;
#133 = PERSON_AND_ORGANIZATION_ROLE ( 'classification_officer' ) ;
#134 = DATE_AND_TIME ( #50, #143 ) ;
#135 = VECTOR ( 'NONE', #140, 1000.000000000000000 ) ;
#136 = FACE_OUTER_BOUND ( 'NONE', #24, .T. ) ;
#137 = DIRECTION ( 'NONE',  ( 0.0000000000000000000, -0.0000000000000000000, 1.000000000000000000 ) ) ;
#138 = CARTESIAN_POINT ( 'NONE',  ( 3.000000000000000000, 6.350000000000000500, 6.349999999999997900 ) ) ;
#139 = CARTESIAN_POINT ( 'NONE',  ( 3.000000000000000000, -6.349999999999997900, 6.350000000000000500 ) ) ;
#140 = DIRECTION ( 'NONE',  ( -1.000000000000000000, -0.0000000000000000000, -0.0000000000000000000 ) ) ;
#141 = CARTESIAN_POINT ( 'NONE',  ( -3.000000000000000000, -6.349999999999997900, -6.350000000000002300 ) ) ;
#142 = EDGE_LOOP ( 'NONE', ( #12, #180, #79, #120 ) ) ;
#143 = LOCAL_TIME ( 15, 19, 50.00000000000000000, #26 ) ;
#144 = FACE_OUTER_BOUND ( 'NONE', #191, .T. ) ;
#145 = DIRECTION ( 'NONE',  ( 0.0000000000000000000, 0.0000000000000000000, -1.000000000000000000 ) ) ;
#146 = PERSON_AND_ORGANIZATION_ROLE ( 'design_owner' ) ;
#147 = LINE ( 'NONE', #106, #60 ) ;
#148 = LOCAL_TIME ( 15, 19, 50.00000000000000000, #93 ) ;
#149 = DATE_AND_TIME ( #7, #71 ) ;
#150 = AXIS2_PLACEMENT_3D ( 'NONE', #59, #213, #209 ) ;
#151 = VERTEX_POINT ( 'NONE', #231 ) ;
#152 = COORDINATED_UNIVERSAL_TIME_OFFSET ( 5, 0, .BEHIND. ) ;
#153 = CARTESIAN_POINT ( 'NONE',  ( 3.000000000000000000, 6.350000000000000500, -6.349999999999999600 ) ) ;
#154 = CARTESIAN_POINT ( 'NONE',  ( 3.000000000000000000, 6.350000000000000500, 6.349999999999997900 ) ) ;
#155 = CARTESIAN_POINT ( 'NONE',  ( 3.000000000000000000, 6.350000000000000500, 6.349999999999997900 ) ) ;
#156 = DATE_AND_TIME ( #204, #19 ) ;
#157 = AXIS2_PLACEMENT_3D ( 'NONE', #153, #69, #218 ) ;
#158 = CARTESIAN_POINT ( 'NONE',  ( -3.000000000000000000, -6.349999999999997900, 6.350000000000000500 ) ) ;
#159 = ORGANIZATION ( 'UNSPECIFIED', 'UNSPECIFIED', '' ) ;
#160 = APPLICATION_CONTEXT ( 'configuration controlled 3d designs of mechanical parts and assemblies' ) ;
#161 = APPROVAL_STATUS ( 'not_yet_approved' ) ;
#162 = APPROVAL_PERSON_ORGANIZATION ( #197, #234, #21 ) ;
#163 = SECURITY_CLASSIFICATION_LEVEL ( 'unclassified' ) ;
#164 = CC_DESIGN_DATE_AND_TIME_ASSIGNMENT ( #46, #84, ( #36 ) ) ;
#165 = APPROVAL_DATE_TIME ( #149, #29 ) ;
#166 = CARTESIAN_POINT ( 'NONE',  ( -3.000000000000000000, 6.350000000000000500, -6.349999999999999600 ) ) ;
#167 = ADVANCED_FACE ( 'NONE', ( #56 ), #233, .F. ) ;
#168 = ORIENTED_EDGE ( 'NONE', *, *, #9, .F. ) ;
#169 = CC_DESIGN_APPROVAL ( #234, ( #36 ) ) ;
#170 = LINE ( 'NONE', #75, #18 ) ;
#171 = EDGE_CURVE ( 'NONE', #67, #40, #11, .T. ) ;
#172 = CARTESIAN_POINT ( 'NONE',  ( 3.000000000000000000, -6.349999999999997900, -6.350000000000002300 ) ) ;
#173 = DIRECTION ( 'NONE',  ( 1.000000000000000000, 0.0000000000000000000, 0.0000000000000000000 ) ) ;
#174 = DIRECTION ( 'NONE',  ( -0.0000000000000000000, 1.000000000000000000, 2.048885995248197400E-016 ) ) ;
#175 = DIRECTION ( 'NONE',  ( -0.0000000000000000000, -0.0000000000000000000, 1.000000000000000000 ) ) ;
#176 = MANIFOLD_SOLID_BREP ( 'Boss-Extrude1', #201 ) ;
#177 = FACE_OUTER_BOUND ( 'NONE', #216, .T. ) ;
#178 = PERSON_AND_ORGANIZATION_ROLE ( 'creator' ) ;
#179 = APPROVAL_DATE_TIME ( #126, #117 ) ;
#180 = ORIENTED_EDGE ( 'NONE', *, *, #210, .F. ) ;
#181 = PRODUCT ( 'Web Model 43772_43773', 'Web Model 43772_43773', '', ( #217 ) ) ;
#182 = LINE ( 'NONE', #80, #135 ) ;
#183 = ADVANCED_FACE ( 'NONE', ( #144 ), #220, .F. ) ;
#184 = VECTOR ( 'NONE', #34, 1000.000000000000000 ) ;
#185 = EDGE_CURVE ( 'NONE', #151, #73, #147, .T. ) ;
#186 = CARTESIAN_POINT ( 'NONE',  ( -3.000000000000000000, 6.350000000000000500, -6.349999999999999600 ) ) ;
#187 = VECTOR ( 'NONE', #25, 1000.000000000000000 ) ;
#188 = ORIENTED_EDGE ( 'NONE', *, *, #212, .T. ) ;
#189 = VERTEX_POINT ( 'NONE', #166 ) ;
#190 = DIRECTION ( 'NONE',  ( -1.000000000000000000, -0.0000000000000000000, -0.0000000000000000000 ) ) ;
#191 = EDGE_LOOP ( 'NONE', ( #54, #235, #47, #236 ) ) ;
#192 = PERSON_AND_ORGANIZATION_ROLE ( 'creator' ) ;
#193 = EDGE_CURVE ( 'NONE', #40, #111, #85, .T. ) ;
#194 = CALENDAR_DATE ( 2018, 12, 3 ) ;
#195 = PERSON_AND_ORGANIZATION_ROLE ( 'design_supplier' ) ;
#196 = VECTOR ( 'NONE', #145, 1000.000000000000000 ) ;
#197 = PERSON_AND_ORGANIZATION ( #199, #159 ) ;
#198 = AXIS2_PLACEMENT_3D ( 'NONE', #138, #57, #96 ) ;
#199 = PERSON ( 'UNSPECIFIED', 'UNSPECIFIED', 'UNSPECIFIED', ('UNSPECIFIED'), ('UNSPECIFIED'), ('UNSPECIFIED') ) ;
#200 = ORIENTED_EDGE ( 'NONE', *, *, #210, .T. ) ;
#201 = CLOSED_SHELL ( 'NONE', ( #183, #5, #167, #205, #52, #48 ) ) ;
#202 = EDGE_CURVE ( 'NONE', #111, #189, #215, .T. ) ;
#203 = VECTOR ( 'NONE', #228, 1000.000000000000000 ) ;
#204 = CALENDAR_DATE ( 2018, 12, 3 ) ;
#205 = ADVANCED_FACE ( 'NONE', ( #177 ), #31, .F. ) ;
#206 = AXIS2_PLACEMENT_3D ( 'NONE', #68, #219, #43 ) ;
#207 = VECTOR ( 'NONE', #175, 1000.000000000000000 ) ;
#208 = DIRECTION ( 'NONE',  ( 0.0000000000000000000, -1.000000000000000000, 2.048885995248197400E-016 ) ) ;
#209 = DIRECTION ( 'NONE',  ( 0.0000000000000000000, 0.0000000000000000000, -1.000000000000000000 ) ) ;
#210 = EDGE_CURVE ( 'NONE', #20, #189, #170, .T. ) ;
#211 = ORIENTED_EDGE ( 'NONE', *, *, #70, .T. ) ;
#212 = EDGE_CURVE ( 'NONE', #189, #67, #103, .T. ) ;
#213 = DIRECTION ( 'NONE',  ( 1.000000000000000000, 0.0000000000000000000, 0.0000000000000000000 ) ) ;
#214 = VERTEX_POINT ( 'NONE', #172 ) ;
#215 = LINE ( 'NONE', #186, #203 ) ;
#216 = EDGE_LOOP ( 'NONE', ( #188, #94, #168, #200 ) ) ;
#217 = MECHANICAL_CONTEXT ( 'NONE', #41, 'mechanical' ) ;
#218 = DIRECTION ( 'NONE',  ( 0.0000000000000000000, -1.000000000000000000, -2.048885995248197400E-016 ) ) ;
#219 = DIRECTION ( 'NONE',  ( 0.0000000000000000000, 0.0000000000000000000, 1.000000000000000000 ) ) ;
#220 = PLANE ( 'NONE',  #100 ) ;
#221 = DIRECTION ( 'NONE',  ( 0.0000000000000000000, -2.048885995248197400E-016, -1.000000000000000000 ) ) ;
#222 = PERSON_AND_ORGANIZATION ( #199, #159 ) ;
#223 = EDGE_CURVE ( 'NONE', #151, #67, #37, .T. ) ;
#224 = DIRECTION ( 'NONE',  ( 0.0000000000000000000, 1.000000000000000000, -2.048885995248197400E-016 ) ) ;
#225 = PLANE ( 'NONE',  #150 ) ;
#226 = FACE_OUTER_BOUND ( 'NONE', #91, .T. ) ;
#227 = ORIENTED_EDGE ( 'NONE', *, *, #171, .F. ) ;
#228 = DIRECTION ( 'NONE',  ( -0.0000000000000000000, 1.000000000000000000, 2.048885995248197400E-016 ) ) ;
#229 = CARTESIAN_POINT ( 'NONE',  ( 3.000000000000000000, -6.349999999999997900, 6.350000000000000500 ) ) ;
#230 = VECTOR ( 'NONE', #190, 1000.000000000000000 ) ;
#231 = CARTESIAN_POINT ( 'NONE',  ( 3.000000000000000000, 6.350000000000000500, 6.349999999999997900 ) ) ;
#232 = CARTESIAN_POINT ( 'NONE',  ( 3.000000000000000000, -6.349999999999997900, -6.350000000000002300 ) ) ;
#233 = PLANE ( 'NONE',  #157 ) ;
#234 = APPROVAL ( #66, 'UNSPECIFIED' ) ;
#235 = ORIENTED_EDGE ( 'NONE', *, *, #49, .F. ) ;
#236 = ORIENTED_EDGE ( 'NONE', *, *, #223, .T. ) ;
#237 = PLANE ( 'NONE',  #92 ) ;
ENDSEC;
END-ISO-10303-21;
