ISO-10303-21;
HEADER;
FILE_DESCRIPTION (( 'STEP AP203' ),
    '1' );
FILE_NAME ('Web Model ZnSe Unctd_39404.step',
    '2018-09-27T18:12:28',
    ( '' ),
    ( '' ),
    'SwSTEP 2.0',
    'SolidWorks 2016',
    '' );
FILE_SCHEMA (( 'CONFIG_CONTROL_DESIGN' ));
ENDSEC;

DATA;
#1 = VECTOR ( 'NONE', #82, 1000.000000000000000 ) ;
#2 = CC_DESIGN_PERSON_AND_ORGANIZATION_ASSIGNMENT ( #92, #66, ( #124 ) ) ;
#3 = CARTESIAN_POINT ( 'NONE',  ( 0.0000000000000000000, 0.0000000000000000000, 2.500000000000000000 ) ) ;
#4 = ADVANCED_FACE ( 'NONE', ( #174 ), #74, .F. ) ;
#5 = APPLICATION_CONTEXT ( 'configuration controlled 3d designs of mechanical parts and assemblies' ) ;
#6 = PERSON_AND_ORGANIZATION ( #149, #107 ) ;
#7 = APPROVAL_ROLE ( '' ) ;
#8 = DIRECTION ( 'NONE',  ( 0.0000000000000000000, 0.0000000000000000000, 1.000000000000000000 ) ) ;
#9 = DIRECTION ( 'NONE',  ( 1.000000000000000000, 0.0000000000000000000, 0.0000000000000000000 ) ) ;
#10 = ORIENTED_EDGE ( 'NONE', *, *, #125, .T. ) ;
#11 = CALENDAR_DATE ( 2018, 27, 9 ) ;
#12 = APPLICATION_PROTOCOL_DEFINITION ( 'international standard', 'config_control_design', 1994, #5 ) ;
#13 = FACE_OUTER_BOUND ( 'NONE', #139, .T. ) ;
#14 = CC_DESIGN_PERSON_AND_ORGANIZATION_ASSIGNMENT ( #23, #31, ( #105 ) ) ;
#15 = CLOSED_SHELL ( 'NONE', ( #126, #29, #116, #4 ) ) ;
#16 = SECURITY_CLASSIFICATION ( '', '', #95 ) ;
#17 = AXIS2_PLACEMENT_3D ( 'NONE', #67, #97, #9 ) ;
#18 = APPROVAL_STATUS ( 'not_yet_approved' ) ;
#19 = PLANE ( 'NONE',  #50 ) ;
#20 = PERSON_AND_ORGANIZATION_ROLE ( 'design_supplier' ) ;
#21 = PERSON_AND_ORGANIZATION ( #149, #107 ) ;
#22 = APPROVAL_DATE_TIME ( #134, #37 ) ;
#23 = PERSON_AND_ORGANIZATION ( #149, #107 ) ;
#24 = EDGE_CURVE ( 'NONE', #71, #102, #57, .T. ) ;
#25 = EDGE_LOOP ( 'NONE', ( #90, #100 ) ) ;
#26 = CALENDAR_DATE ( 2018, 27, 9 ) ;
#27 = MANIFOLD_SOLID_BREP ( 'Boss-Extrude1', #15 ) ;
#28 = DIRECTION ( 'NONE',  ( 1.000000000000000000, 0.0000000000000000000, 0.0000000000000000000 ) ) ;
#29 = ADVANCED_FACE ( 'NONE', ( #62 ), #72, .T. ) ;
#30 = CC_DESIGN_PERSON_AND_ORGANIZATION_ASSIGNMENT ( #144, #20, ( #105 ) ) ;
#31 = PERSON_AND_ORGANIZATION_ROLE ( 'creator' ) ;
#32 = AXIS2_PLACEMENT_3D ( 'NONE', #160, #171, #108 ) ;
#33 = ORIENTED_EDGE ( 'NONE', *, *, #125, .F. ) ;
#34 = CYLINDRICAL_SURFACE ( 'NONE', #32, 25.39999999999999900 ) ;
#35 = AXIS2_PLACEMENT_3D ( 'NONE', #167, #63, #130 ) ;
#36 = LOCAL_TIME ( 14, 12, 28.00000000000000000, #53 ) ;
#37 = APPROVAL ( #18, 'UNSPECIFIED' ) ;
#38 = VECTOR ( 'NONE', #131, 1000.000000000000000 ) ;
#39 = CALENDAR_DATE ( 2018, 27, 9 ) ;
#40 = ORIENTED_EDGE ( 'NONE', *, *, #56, .T. ) ;
#41 = APPROVAL_PERSON_ORGANIZATION ( #6, #98, #109 ) ;
#42 = UNCERTAINTY_MEASURE_WITH_UNIT (LENGTH_MEASURE( 1.000000000000000100E-005 ), #129, 'distance_accuracy_value', 'NONE');
#43 = CARTESIAN_POINT ( 'NONE',  ( 25.39999999999999900, 3.110602869834276900E-015, 2.500000000000000000 ) ) ;
#44 = EDGE_CURVE ( 'NONE', #102, #71, #150, .T. ) ;
#45 = CIRCLE ( 'NONE', #35, 25.39999999999999900 ) ;
#46 = APPLICATION_PROTOCOL_DEFINITION ( 'international standard', 'config_control_design', 1994, #164 ) ;
#47 = CC_DESIGN_APPROVAL ( #172, ( #124 ) ) ;
#48 = CARTESIAN_POINT ( 'NONE',  ( -25.39999999999999900, 0.0000000000000000000, 2.500000000000000000 ) ) ;
#49 = ORIENTED_EDGE ( 'NONE', *, *, #151, .F. ) ;
#50 = AXIS2_PLACEMENT_3D ( 'NONE', #159, #8, #96 ) ;
#51 = DATE_AND_TIME ( #26, #87 ) ;
#52 =( NAMED_UNIT ( * ) SI_UNIT ( $, .STERADIAN. ) SOLID_ANGLE_UNIT ( ) );
#53 = COORDINATED_UNIVERSAL_TIME_OFFSET ( 5, 0, .BEHIND. ) ;
#54 = ORIENTED_EDGE ( 'NONE', *, *, #24, .T. ) ;
#55 = CC_DESIGN_APPROVAL ( #37, ( #16 ) ) ;
#56 = EDGE_CURVE ( 'NONE', #118, #114, #45, .T. ) ;
#57 = CIRCLE ( 'NONE', #138, 25.39999999999999900 ) ;
#58 = CALENDAR_DATE ( 2018, 27, 9 ) ;
#59 = COORDINATED_UNIVERSAL_TIME_OFFSET ( 5, 0, .BEHIND. ) ;
#60 = CC_DESIGN_DATE_AND_TIME_ASSIGNMENT ( #101, #117, ( #16 ) ) ;
#61 = EDGE_LOOP ( 'NONE', ( #85, #49, #10, #152 ) ) ;
#62 = FACE_OUTER_BOUND ( 'NONE', #61, .T. ) ;
#63 = DIRECTION ( 'NONE',  ( 0.0000000000000000000, 0.0000000000000000000, 1.000000000000000000 ) ) ;
#64 = CC_DESIGN_PERSON_AND_ORGANIZATION_ASSIGNMENT ( #21, #99, ( #145 ) ) ;
#65 = DIRECTION ( 'NONE',  ( 0.0000000000000000000, 0.0000000000000000000, 1.000000000000000000 ) ) ;
#66 = PERSON_AND_ORGANIZATION_ROLE ( 'creator' ) ;
#67 = CARTESIAN_POINT ( 'NONE',  ( 0.0000000000000000000, 0.0000000000000000000, 0.0000000000000000000 ) ) ;
#68 = SHAPE_DEFINITION_REPRESENTATION ( #175, #165 ) ;
#69 = CC_DESIGN_APPROVAL ( #98, ( #105 ) ) ;
#70 = COORDINATED_UNIVERSAL_TIME_OFFSET ( 5, 0, .BEHIND. ) ;
#71 = VERTEX_POINT ( 'NONE', #93 ) ;
#72 = CYLINDRICAL_SURFACE ( 'NONE', #166, 25.39999999999999900 ) ;
#73 = DATE_AND_TIME ( #11, #81 ) ;
#74 = PLANE ( 'NONE',  #158 ) ;
#75 = DIRECTION ( 'NONE',  ( 0.0000000000000000000, 0.0000000000000000000, 1.000000000000000000 ) ) ;
#76 = LOCAL_TIME ( 14, 12, 28.00000000000000000, #70 ) ;
#77 = AXIS2_PLACEMENT_3D ( 'NONE', #146, #163, #84 ) ;
#78 = DIRECTION ( 'NONE',  ( 0.0000000000000000000, 0.0000000000000000000, 1.000000000000000000 ) ) ;
#79 = DIRECTION ( 'NONE',  ( -0.0000000000000000000, -0.0000000000000000000, -1.000000000000000000 ) ) ;
#80 = FACE_OUTER_BOUND ( 'NONE', #162, .T. ) ;
#81 = LOCAL_TIME ( 14, 12, 28.00000000000000000, #59 ) ;
#82 = DIRECTION ( 'NONE',  ( -0.0000000000000000000, -0.0000000000000000000, -1.000000000000000000 ) ) ;
#83 = CARTESIAN_POINT ( 'NONE',  ( -25.39999999999999900, 0.0000000000000000000, 2.500000000000000000 ) ) ;
#84 = DIRECTION ( 'NONE',  ( 1.000000000000000000, 0.0000000000000000000, 0.0000000000000000000 ) ) ;
#85 = ORIENTED_EDGE ( 'NONE', *, *, #121, .F. ) ;
#86 = MECHANICAL_CONTEXT ( 'NONE', #164, 'mechanical' ) ;
#87 = LOCAL_TIME ( 14, 12, 28.00000000000000000, #140 ) ;
#88 = ORIENTED_EDGE ( 'NONE', *, *, #151, .T. ) ;
#89 = COORDINATED_UNIVERSAL_TIME_OFFSET ( 5, 0, .BEHIND. ) ;
#90 = ORIENTED_EDGE ( 'NONE', *, *, #44, .F. ) ;
#91 = CARTESIAN_POINT ( 'NONE',  ( -25.39999999999999900, 0.0000000000000000000, -2.500000000000000000 ) ) ;
#92 = PERSON_AND_ORGANIZATION ( #149, #107 ) ;
#93 = CARTESIAN_POINT ( 'NONE',  ( 25.39999999999999900, 3.110602869834276900E-015, -2.500000000000000000 ) ) ;
#94 = CARTESIAN_POINT ( 'NONE',  ( 25.39999999999999900, 3.110602869834276900E-015, 2.500000000000000000 ) ) ;
#95 = SECURITY_CLASSIFICATION_LEVEL ( 'unclassified' ) ;
#96 = DIRECTION ( 'NONE',  ( 1.000000000000000000, 0.0000000000000000000, -0.0000000000000000000 ) ) ;
#97 = DIRECTION ( 'NONE',  ( 0.0000000000000000000, 0.0000000000000000000, 1.000000000000000000 ) ) ;
#98 = APPROVAL ( #106, 'UNSPECIFIED' ) ;
#99 = PERSON_AND_ORGANIZATION_ROLE ( 'design_owner' ) ;
#100 = ORIENTED_EDGE ( 'NONE', *, *, #24, .F. ) ;
#101 = DATE_AND_TIME ( #58, #76 ) ;
#102 = VERTEX_POINT ( 'NONE', #91 ) ;
#103 = LOCAL_TIME ( 14, 12, 28.00000000000000000, #89 ) ;
#104 = DATE_AND_TIME ( #39, #36 ) ;
#105 = PRODUCT_DEFINITION_FORMATION_WITH_SPECIFIED_SOURCE ( 'ANY', '', #145, .NOT_KNOWN. ) ;
#106 = APPROVAL_STATUS ( 'not_yet_approved' ) ;
#107 = ORGANIZATION ( 'UNSPECIFIED', 'UNSPECIFIED', '' ) ;
#108 = DIRECTION ( 'NONE',  ( -1.000000000000000000, 0.0000000000000000000, 0.0000000000000000000 ) ) ;
#109 = APPROVAL_ROLE ( '' ) ;
#110 = LINE ( 'NONE', #94, #38 ) ;
#111 = APPROVAL_PERSON_ORGANIZATION ( #133, #37, #132 ) ;
#112 = APPROVAL_PERSON_ORGANIZATION ( #120, #172, #7 ) ;
#113 = LINE ( 'NONE', #48, #1 ) ;
#114 = VERTEX_POINT ( 'NONE', #83 ) ;
#115 = CARTESIAN_POINT ( 'NONE',  ( 0.0000000000000000000, 0.0000000000000000000, -2.500000000000000000 ) ) ;
#116 = ADVANCED_FACE ( 'NONE', ( #13 ), #19, .T. ) ;
#117 = DATE_TIME_ROLE ( 'classification_date' ) ;
#118 = VERTEX_POINT ( 'NONE', #43 ) ;
#119 = PERSON_AND_ORGANIZATION_ROLE ( 'classification_officer' ) ;
#120 = PERSON_AND_ORGANIZATION ( #149, #107 ) ;
#121 = EDGE_CURVE ( 'NONE', #118, #71, #110, .T. ) ;
#122 = CALENDAR_DATE ( 2018, 27, 9 ) ;
#123 = APPROVAL_DATE_TIME ( #73, #98 ) ;
#124 = PRODUCT_DEFINITION ( 'UNKNOWN', '', #105, #135 ) ;
#125 = EDGE_CURVE ( 'NONE', #114, #102, #113, .T. ) ;
#126 = ADVANCED_FACE ( 'NONE', ( #80 ), #34, .T. ) ;
#127 = ORIENTED_EDGE ( 'NONE', *, *, #56, .F. ) ;
#128 = DIRECTION ( 'NONE',  ( 1.000000000000000000, 0.0000000000000000000, -0.0000000000000000000 ) ) ;
#129 =( LENGTH_UNIT ( ) NAMED_UNIT ( * ) SI_UNIT ( .MILLI., .METRE. ) );
#130 = DIRECTION ( 'NONE',  ( 1.000000000000000000, 0.0000000000000000000, 0.0000000000000000000 ) ) ;
#131 = DIRECTION ( 'NONE',  ( -0.0000000000000000000, -0.0000000000000000000, -1.000000000000000000 ) ) ;
#132 = APPROVAL_ROLE ( '' ) ;
#133 = PERSON_AND_ORGANIZATION ( #149, #107 ) ;
#134 = DATE_AND_TIME ( #122, #103 ) ;
#135 = DESIGN_CONTEXT ( 'detailed design', #5, 'design' ) ;
#136 = AXIS2_PLACEMENT_3D ( 'NONE', #115, #78, #28 ) ;
#137 = CC_DESIGN_DATE_AND_TIME_ASSIGNMENT ( #104, #173, ( #124 ) ) ;
#138 = AXIS2_PLACEMENT_3D ( 'NONE', #156, #75, #168 ) ;
#139 = EDGE_LOOP ( 'NONE', ( #88, #40 ) ) ;
#140 = COORDINATED_UNIVERSAL_TIME_OFFSET ( 5, 0, .BEHIND. ) ;
#141 = CARTESIAN_POINT ( 'NONE',  ( 0.0000000000000000000, 0.0000000000000000000, -2.500000000000000000 ) ) ;
#142 = CIRCLE ( 'NONE', #77, 25.39999999999999900 ) ;
#143 = APPROVAL_STATUS ( 'not_yet_approved' ) ;
#144 = PERSON_AND_ORGANIZATION ( #149, #107 ) ;
#145 = PRODUCT ( 'Web Model ZnSe Unctd_39404', 'Web Model ZnSe Unctd_39404', '', ( #86 ) ) ;
#146 = CARTESIAN_POINT ( 'NONE',  ( 0.0000000000000000000, 0.0000000000000000000, 2.500000000000000000 ) ) ;
#147 = PERSON_AND_ORGANIZATION ( #149, #107 ) ;
#148 =( NAMED_UNIT ( * ) PLANE_ANGLE_UNIT ( ) SI_UNIT ( $, .RADIAN. ) );
#149 = PERSON ( 'UNSPECIFIED', 'UNSPECIFIED', 'UNSPECIFIED', ('UNSPECIFIED'), ('UNSPECIFIED'), ('UNSPECIFIED') ) ;
#150 = CIRCLE ( 'NONE', #136, 25.39999999999999900 ) ;
#151 = EDGE_CURVE ( 'NONE', #114, #118, #142, .T. ) ;
#152 = ORIENTED_EDGE ( 'NONE', *, *, #44, .T. ) ;
#153 =( GEOMETRIC_REPRESENTATION_CONTEXT ( 3 ) GLOBAL_UNCERTAINTY_ASSIGNED_CONTEXT ( ( #42 ) ) GLOBAL_UNIT_ASSIGNED_CONTEXT ( ( #129, #148, #52 ) ) REPRESENTATION_CONTEXT ( 'NONE', 'WORKASPACE' ) );
#154 = PRODUCT_RELATED_PRODUCT_CATEGORY ( 'detail', '', ( #145 ) ) ;
#155 = CC_DESIGN_SECURITY_CLASSIFICATION ( #16, ( #105 ) ) ;
#156 = CARTESIAN_POINT ( 'NONE',  ( 0.0000000000000000000, 0.0000000000000000000, -2.500000000000000000 ) ) ;
#157 = APPROVAL_DATE_TIME ( #51, #172 ) ;
#158 = AXIS2_PLACEMENT_3D ( 'NONE', #141, #65, #128 ) ;
#159 = CARTESIAN_POINT ( 'NONE',  ( 0.0000000000000000000, 0.0000000000000000000, 2.500000000000000000 ) ) ;
#160 = CARTESIAN_POINT ( 'NONE',  ( 0.0000000000000000000, 0.0000000000000000000, 2.500000000000000000 ) ) ;
#161 = CC_DESIGN_PERSON_AND_ORGANIZATION_ASSIGNMENT ( #147, #119, ( #16 ) ) ;
#162 = EDGE_LOOP ( 'NONE', ( #127, #169, #54, #33 ) ) ;
#163 = DIRECTION ( 'NONE',  ( 0.0000000000000000000, 0.0000000000000000000, 1.000000000000000000 ) ) ;
#164 = APPLICATION_CONTEXT ( 'configuration controlled 3d designs of mechanical parts and assemblies' ) ;
#165 = ADVANCED_BREP_SHAPE_REPRESENTATION ( 'Web Model ZnSe Unctd_39404', ( #27, #17 ), #153 ) ;
#166 = AXIS2_PLACEMENT_3D ( 'NONE', #3, #79, #170 ) ;
#167 = CARTESIAN_POINT ( 'NONE',  ( 0.0000000000000000000, 0.0000000000000000000, 2.500000000000000000 ) ) ;
#168 = DIRECTION ( 'NONE',  ( 1.000000000000000000, 0.0000000000000000000, 0.0000000000000000000 ) ) ;
#169 = ORIENTED_EDGE ( 'NONE', *, *, #121, .T. ) ;
#170 = DIRECTION ( 'NONE',  ( -1.000000000000000000, 0.0000000000000000000, 0.0000000000000000000 ) ) ;
#171 = DIRECTION ( 'NONE',  ( -0.0000000000000000000, -0.0000000000000000000, -1.000000000000000000 ) ) ;
#172 = APPROVAL ( #143, 'UNSPECIFIED' ) ;
#173 = DATE_TIME_ROLE ( 'creation_date' ) ;
#174 = FACE_OUTER_BOUND ( 'NONE', #25, .T. ) ;
#175 = PRODUCT_DEFINITION_SHAPE ( 'NONE', 'NONE',  #124 ) ;
ENDSEC;
END-ISO-10303-21;
