ISO-10303-21;
HEADER;
FILE_DESCRIPTION (( 'STEP AP203' ),
    '1' );
FILE_NAME ('Web Model 15467_21241.step',
    '2022-03-29T20:38:19',
    ( '' ),
    ( '' ),
    'SwSTEP 2.0',
    'SolidWorks 2021',
    '' );
FILE_SCHEMA (( 'CONFIG_CONTROL_DESIGN' ));
ENDSEC;

DATA;
#1 = DIRECTION ( 'NONE',  ( -1.000000000000000000, 0.000000000000000000, 0.000000000000000000 ) ) ;
#2 = CC_DESIGN_APPROVAL ( #17, ( #79 ) ) ;
#3 = ADVANCED_FACE ( 'NONE', ( #49 ), #103, .T. ) ;
#4 = DATE_AND_TIME ( #99, #9 ) ;
#5 = DATE_AND_TIME ( #95, #114 ) ;
#6 = ORIENTED_EDGE ( 'NONE', *, *, #31, .T. ) ;
#7 = MANIFOLD_SOLID_BREP ( 'Boss-Extrude1', #161 ) ;
#8 = EDGE_CURVE ( 'NONE', #72, #129, #120, .T. ) ;
#9 = LOCAL_TIME ( 16, 38, 19.00000000000000000, #16 ) ;
#10 = APPLICATION_PROTOCOL_DEFINITION ( 'international standard', 'config_control_design', 1994, #102 ) ;
#11 = DATE_AND_TIME ( #85, #59 ) ;
#12 = AXIS2_PLACEMENT_3D ( 'NONE', #108, #157, #22 ) ;
#13 = PERSON_AND_ORGANIZATION_ROLE ( 'design_supplier' ) ;
#14 = PERSON_AND_ORGANIZATION ( #93, #52 ) ;
#15 = AXIS2_PLACEMENT_3D ( 'NONE', #144, #68, #1 ) ;
#16 = COORDINATED_UNIVERSAL_TIME_OFFSET ( 5, 0, .BEHIND. ) ;
#17 = APPROVAL ( #56, 'UNSPECIFIED' ) ;
#18 = ORIENTED_EDGE ( 'NONE', *, *, #66, .T. ) ;
#19 = PRODUCT ( 'Web Model 15467_21241', 'Web Model 15467_21241', '', ( #130 ) ) ;
#20 = CARTESIAN_POINT ( 'NONE',  ( 0.000000000000000000, 0.000000000000000000, 0.5000000000000000000 ) ) ;
#21 = CC_DESIGN_PERSON_AND_ORGANIZATION_ASSIGNMENT ( #117, #111, ( #122 ) ) ;
#22 = DIRECTION ( 'NONE',  ( 1.000000000000000000, 0.000000000000000000, -0.000000000000000000 ) ) ;
#23 = DIRECTION ( 'NONE',  ( 1.000000000000000000, 0.000000000000000000, 0.000000000000000000 ) ) ;
#24 = DIRECTION ( 'NONE',  ( 0.000000000000000000, 0.000000000000000000, 1.000000000000000000 ) ) ;
#25 = APPROVAL_STATUS ( 'not_yet_approved' ) ;
#26 = PERSON_AND_ORGANIZATION ( #93, #52 ) ;
#27 = CIRCLE ( 'NONE', #38, 2.500000000000000444 ) ;
#28 = PERSON_AND_ORGANIZATION ( #93, #52 ) ;
#29 = EDGE_LOOP ( 'NONE', ( #33, #64 ) ) ;
#30 = CC_DESIGN_DATE_AND_TIME_ASSIGNMENT ( #4, #71, ( #78 ) ) ;
#31 = EDGE_CURVE ( 'NONE', #101, #129, #35, .T. ) ;
#32 = ORIENTED_EDGE ( 'NONE', *, *, #143, .T. ) ;
#33 = ORIENTED_EDGE ( 'NONE', *, *, #66, .F. ) ;
#34 = CARTESIAN_POINT ( 'NONE',  ( 2.500000000000000444, 3.061616997868383634E-16, 0.5000000000000000000 ) ) ;
#35 = CIRCLE ( 'NONE', #75, 2.500000000000000444 ) ;
#36 = CARTESIAN_POINT ( 'NONE',  ( -2.500000000000000444, 0.000000000000000000, 0.5000000000000000000 ) ) ;
#37 = CARTESIAN_POINT ( 'NONE',  ( 2.500000000000000444, 3.061616997868383634E-16, 0.5000000000000000000 ) ) ;
#38 = AXIS2_PLACEMENT_3D ( 'NONE', #50, #90, #106 ) ;
#39 = UNCERTAINTY_MEASURE_WITH_UNIT (LENGTH_MEASURE( 1.000000000000000082E-05 ), #147, 'distance_accuracy_value', 'NONE');
#40 = CALENDAR_DATE ( 2022, 29, 3 ) ;
#41 = SHAPE_DEFINITION_REPRESENTATION ( #47, #63 ) ;
#42 = CC_DESIGN_DATE_AND_TIME_ASSIGNMENT ( #115, #45, ( #79 ) ) ;
#43 = APPROVAL_PERSON_ORGANIZATION ( #26, #153, #60 ) ;
#44 = COORDINATED_UNIVERSAL_TIME_OFFSET ( 5, 0, .BEHIND. ) ;
#45 = DATE_TIME_ROLE ( 'creation_date' ) ;
#46 = APPROVAL_ROLE ( '' ) ;
#47 = PRODUCT_DEFINITION_SHAPE ( 'NONE', 'NONE',  #79 ) ;
#48 = VERTEX_POINT ( 'NONE', #34 ) ;
#49 = FACE_OUTER_BOUND ( 'NONE', #62, .T. ) ;
#50 = CARTESIAN_POINT ( 'NONE',  ( 0.000000000000000000, 0.000000000000000000, -0.5000000000000000000 ) ) ;
#51 = DIRECTION ( 'NONE',  ( 1.000000000000000000, 0.000000000000000000, 0.000000000000000000 ) ) ;
#52 = ORGANIZATION ( 'UNSPECIFIED', 'UNSPECIFIED', '' ) ;
#53 = DIRECTION ( 'NONE',  ( -0.000000000000000000, -0.000000000000000000, -1.000000000000000000 ) ) ;
#54 = CARTESIAN_POINT ( 'NONE',  ( 2.500000000000000444, 3.061616997868383634E-16, -0.5000000000000000000 ) ) ;
#55 = FACE_OUTER_BOUND ( 'NONE', #118, .T. ) ;
#56 = APPROVAL_STATUS ( 'not_yet_approved' ) ;
#57 = COORDINATED_UNIVERSAL_TIME_OFFSET ( 5, 0, .BEHIND. ) ;
#58 = APPLICATION_PROTOCOL_DEFINITION ( 'international standard', 'config_control_design', 1994, #155 ) ;
#59 = LOCAL_TIME ( 16, 38, 19.00000000000000000, #70 ) ;
#60 = APPROVAL_ROLE ( '' ) ;
#61 = AXIS2_PLACEMENT_3D ( 'NONE', #171, #104, #156 ) ;
#62 = EDGE_LOOP ( 'NONE', ( #167, #138 ) ) ;
#63 = ADVANCED_BREP_SHAPE_REPRESENTATION ( 'Web Model 15467_21241', ( #7, #61 ), #69 ) ;
#64 = ORIENTED_EDGE ( 'NONE', *, *, #31, .F. ) ;
#65 = DIRECTION ( 'NONE',  ( -0.000000000000000000, -0.000000000000000000, -1.000000000000000000 ) ) ;
#66 = EDGE_CURVE ( 'NONE', #129, #101, #27, .T. ) ;
#67 =( NAMED_UNIT ( * ) PLANE_ANGLE_UNIT ( ) SI_UNIT ( $, .RADIAN. ) );
#68 = DIRECTION ( 'NONE',  ( -0.000000000000000000, -0.000000000000000000, -1.000000000000000000 ) ) ;
#69 =( GEOMETRIC_REPRESENTATION_CONTEXT ( 3 ) GLOBAL_UNCERTAINTY_ASSIGNED_CONTEXT ( ( #39 ) ) GLOBAL_UNIT_ASSIGNED_CONTEXT ( ( #147, #67, #121 ) ) REPRESENTATION_CONTEXT ( 'NONE', 'WORKASPACE' ) );
#70 = COORDINATED_UNIVERSAL_TIME_OFFSET ( 5, 0, .BEHIND. ) ;
#71 = DATE_TIME_ROLE ( 'classification_date' ) ;
#72 = VERTEX_POINT ( 'NONE', #124 ) ;
#73 = AXIS2_PLACEMENT_3D ( 'NONE', #20, #65, #80 ) ;
#74 = DIRECTION ( 'NONE',  ( 1.000000000000000000, 0.000000000000000000, -0.000000000000000000 ) ) ;
#75 = AXIS2_PLACEMENT_3D ( 'NONE', #123, #24, #51 ) ;
#76 = CARTESIAN_POINT ( 'NONE',  ( 0.000000000000000000, 0.000000000000000000, 0.5000000000000000000 ) ) ;
#77 = CARTESIAN_POINT ( 'NONE',  ( 0.000000000000000000, 0.000000000000000000, 0.5000000000000000000 ) ) ;
#78 = SECURITY_CLASSIFICATION ( '', '', #149 ) ;
#79 = PRODUCT_DEFINITION ( 'UNKNOWN', '', #122, #148 ) ;
#80 = DIRECTION ( 'NONE',  ( -1.000000000000000000, 0.000000000000000000, 0.000000000000000000 ) ) ;
#81 = APPROVAL_DATE_TIME ( #11, #172 ) ;
#82 = PRODUCT_RELATED_PRODUCT_CATEGORY ( 'detail', '', ( #19 ) ) ;
#83 = ADVANCED_FACE ( 'NONE', ( #158 ), #159, .T. ) ;
#84 = PERSON_AND_ORGANIZATION ( #93, #52 ) ;
#85 = CALENDAR_DATE ( 2022, 29, 3 ) ;
#86 = DIRECTION ( 'NONE',  ( 0.000000000000000000, 0.000000000000000000, 1.000000000000000000 ) ) ;
#87 = ORIENTED_EDGE ( 'NONE', *, *, #164, .F. ) ;
#88 = CC_DESIGN_PERSON_AND_ORGANIZATION_ASSIGNMENT ( #127, #13, ( #122 ) ) ;
#89 = CC_DESIGN_APPROVAL ( #153, ( #122 ) ) ;
#90 = DIRECTION ( 'NONE',  ( 0.000000000000000000, 0.000000000000000000, 1.000000000000000000 ) ) ;
#91 = DIRECTION ( 'NONE',  ( 0.000000000000000000, 0.000000000000000000, 1.000000000000000000 ) ) ;
#92 = LOCAL_TIME ( 16, 38, 19.00000000000000000, #57 ) ;
#93 = PERSON ( 'UNSPECIFIED', 'UNSPECIFIED', 'UNSPECIFIED', ('UNSPECIFIED'), ('UNSPECIFIED'), ('UNSPECIFIED') ) ;
#94 = FACE_OUTER_BOUND ( 'NONE', #29, .T. ) ;
#95 = CALENDAR_DATE ( 2022, 29, 3 ) ;
#96 = APPROVAL_DATE_TIME ( #5, #153 ) ;
#97 = CIRCLE ( 'NONE', #137, 2.500000000000000444 ) ;
#98 = PERSON_AND_ORGANIZATION ( #93, #52 ) ;
#99 = CALENDAR_DATE ( 2022, 29, 3 ) ;
#100 = VECTOR ( 'NONE', #53, 1000.000000000000000 ) ;
#101 = VERTEX_POINT ( 'NONE', #54 ) ;
#102 = APPLICATION_CONTEXT ( 'configuration controlled 3d designs of mechanical parts and assemblies' ) ;
#103 = PLANE ( 'NONE',  #131 ) ;
#104 = DIRECTION ( 'NONE',  ( 0.000000000000000000, 0.000000000000000000, 1.000000000000000000 ) ) ;
#105 = PLANE ( 'NONE',  #12 ) ;
#106 = DIRECTION ( 'NONE',  ( 1.000000000000000000, 0.000000000000000000, 0.000000000000000000 ) ) ;
#107 = CARTESIAN_POINT ( 'NONE',  ( -2.500000000000000444, 0.000000000000000000, -0.5000000000000000000 ) ) ;
#108 = CARTESIAN_POINT ( 'NONE',  ( 0.000000000000000000, 0.000000000000000000, -0.5000000000000000000 ) ) ;
#109 = APPROVAL_PERSON_ORGANIZATION ( #84, #17, #125 ) ;
#110 = PERSON_AND_ORGANIZATION ( #93, #52 ) ;
#111 = PERSON_AND_ORGANIZATION_ROLE ( 'creator' ) ;
#112 = ADVANCED_FACE ( 'NONE', ( #55 ), #142, .T. ) ;
#113 = CC_DESIGN_SECURITY_CLASSIFICATION ( #78, ( #122 ) ) ;
#114 = LOCAL_TIME ( 16, 38, 19.00000000000000000, #151 ) ;
#115 = DATE_AND_TIME ( #165, #175 ) ;
#116 = CC_DESIGN_PERSON_AND_ORGANIZATION_ASSIGNMENT ( #98, #152, ( #19 ) ) ;
#117 = PERSON_AND_ORGANIZATION ( #93, #52 ) ;
#118 = EDGE_LOOP ( 'NONE', ( #87, #32, #6, #140 ) ) ;
#119 = ORIENTED_EDGE ( 'NONE', *, *, #143, .F. ) ;
#120 = LINE ( 'NONE', #36, #100 ) ;
#121 =( NAMED_UNIT ( * ) SI_UNIT ( $, .STERADIAN. ) SOLID_ANGLE_UNIT ( ) );
#122 = PRODUCT_DEFINITION_FORMATION_WITH_SPECIFIED_SOURCE ( 'ANY', '', #19, .NOT_KNOWN. ) ;
#123 = CARTESIAN_POINT ( 'NONE',  ( 0.000000000000000000, 0.000000000000000000, -0.5000000000000000000 ) ) ;
#124 = CARTESIAN_POINT ( 'NONE',  ( -2.500000000000000444, 0.000000000000000000, 0.5000000000000000000 ) ) ;
#125 = APPROVAL_ROLE ( '' ) ;
#126 = CC_DESIGN_PERSON_AND_ORGANIZATION_ASSIGNMENT ( #14, #160, ( #78 ) ) ;
#127 = PERSON_AND_ORGANIZATION ( #93, #52 ) ;
#128 = ORIENTED_EDGE ( 'NONE', *, *, #8, .T. ) ;
#129 = VERTEX_POINT ( 'NONE', #107 ) ;
#130 = MECHANICAL_CONTEXT ( 'NONE', #102, 'mechanical' ) ;
#131 = AXIS2_PLACEMENT_3D ( 'NONE', #154, #86, #74 ) ;
#132 = DIRECTION ( 'NONE',  ( 1.000000000000000000, 0.000000000000000000, 0.000000000000000000 ) ) ;
#133 = DIRECTION ( 'NONE',  ( -0.000000000000000000, -0.000000000000000000, -1.000000000000000000 ) ) ;
#134 = CC_DESIGN_PERSON_AND_ORGANIZATION_ASSIGNMENT ( #110, #166, ( #79 ) ) ;
#135 = APPROVAL_STATUS ( 'not_yet_approved' ) ;
#136 = APPROVAL_DATE_TIME ( #162, #17 ) ;
#137 = AXIS2_PLACEMENT_3D ( 'NONE', #77, #91, #132 ) ;
#138 = ORIENTED_EDGE ( 'NONE', *, *, #164, .T. ) ;
#139 = ADVANCED_FACE ( 'NONE', ( #94 ), #105, .F. ) ;
#140 = ORIENTED_EDGE ( 'NONE', *, *, #8, .F. ) ;
#141 = CIRCLE ( 'NONE', #168, 2.500000000000000444 ) ;
#142 = CYLINDRICAL_SURFACE ( 'NONE', #73, 2.500000000000000444 ) ;
#143 = EDGE_CURVE ( 'NONE', #48, #101, #146, .T. ) ;
#144 = CARTESIAN_POINT ( 'NONE',  ( 0.000000000000000000, 0.000000000000000000, 0.5000000000000000000 ) ) ;
#145 = APPROVAL_PERSON_ORGANIZATION ( #28, #172, #46 ) ;
#146 = LINE ( 'NONE', #37, #150 ) ;
#147 =( LENGTH_UNIT ( ) NAMED_UNIT ( * ) SI_UNIT ( .MILLI., .METRE. ) );
#148 = DESIGN_CONTEXT ( 'detailed design', #155, 'design' ) ;
#149 = SECURITY_CLASSIFICATION_LEVEL ( 'unclassified' ) ;
#150 = VECTOR ( 'NONE', #133, 1000.000000000000000 ) ;
#151 = COORDINATED_UNIVERSAL_TIME_OFFSET ( 5, 0, .BEHIND. ) ;
#152 = PERSON_AND_ORGANIZATION_ROLE ( 'design_owner' ) ;
#153 = APPROVAL ( #135, 'UNSPECIFIED' ) ;
#154 = CARTESIAN_POINT ( 'NONE',  ( 0.000000000000000000, 0.000000000000000000, 0.5000000000000000000 ) ) ;
#155 = APPLICATION_CONTEXT ( 'configuration controlled 3d designs of mechanical parts and assemblies' ) ;
#156 = DIRECTION ( 'NONE',  ( 1.000000000000000000, 0.000000000000000000, 0.000000000000000000 ) ) ;
#157 = DIRECTION ( 'NONE',  ( 0.000000000000000000, 0.000000000000000000, 1.000000000000000000 ) ) ;
#158 = FACE_OUTER_BOUND ( 'NONE', #170, .T. ) ;
#159 = CYLINDRICAL_SURFACE ( 'NONE', #15, 2.500000000000000444 ) ;
#160 = PERSON_AND_ORGANIZATION_ROLE ( 'classification_officer' ) ;
#161 = CLOSED_SHELL ( 'NONE', ( #112, #83, #3, #139 ) ) ;
#162 = DATE_AND_TIME ( #40, #92 ) ;
#163 = CC_DESIGN_APPROVAL ( #172, ( #78 ) ) ;
#164 = EDGE_CURVE ( 'NONE', #48, #72, #97, .T. ) ;
#165 = CALENDAR_DATE ( 2022, 29, 3 ) ;
#166 = PERSON_AND_ORGANIZATION_ROLE ( 'creator' ) ;
#167 = ORIENTED_EDGE ( 'NONE', *, *, #174, .T. ) ;
#168 = AXIS2_PLACEMENT_3D ( 'NONE', #76, #173, #23 ) ;
#169 = ORIENTED_EDGE ( 'NONE', *, *, #174, .F. ) ;
#170 = EDGE_LOOP ( 'NONE', ( #119, #169, #128, #18 ) ) ;
#171 = CARTESIAN_POINT ( 'NONE',  ( 0.000000000000000000, 0.000000000000000000, 0.000000000000000000 ) ) ;
#172 = APPROVAL ( #25, 'UNSPECIFIED' ) ;
#173 = DIRECTION ( 'NONE',  ( 0.000000000000000000, 0.000000000000000000, 1.000000000000000000 ) ) ;
#174 = EDGE_CURVE ( 'NONE', #72, #48, #141, .T. ) ;
#175 = LOCAL_TIME ( 16, 38, 19.00000000000000000, #44 ) ;
ENDSEC;
END-ISO-10303-21;
