ISO-10303-21;
HEADER;
FILE_DESCRIPTION (( 'STEP AP203' ),
    '1' );
FILE_NAME ('20128-E0W.STEP',
    '2019-07-16T11:10:20',
    ( '' ),
    ( '' ),
    'SwSTEP 2.0',
    'SolidWorks 2018',
    '' );
FILE_SCHEMA (( 'CONFIG_CONTROL_DESIGN' ));
ENDSEC;

DATA;
#1 = DATE_AND_TIME ( #58, #104 ) ;
#2 = LINE ( 'NONE', #6, #151 ) ;
#3 = PRODUCT ( '20128-E0W', '20128-E0W', '', ( #230 ) ) ;
#4 = CARTESIAN_POINT ( 'NONE',  ( 7.654042494670927038E-17, 0.6149999999999998801, -0.2129999999999999116 ) ) ;
#5 = DIRECTION ( 'NONE',  ( 0.0000000000000000000, 1.000000000000000000, 2.731847993664282940E-16 ) ) ;
#6 = CARTESIAN_POINT ( 'NONE',  ( 0.0000000000000000000, 0.6349999999999954570, -0.2129999999999998284 ) ) ;
#7 = ORGANIZATION ( 'UNSPECIFIED', 'UNSPECIFIED', '' ) ;
#8 = VECTOR ( 'NONE', #228, 100.0000000000000000 ) ;
#9 = ORIENTED_EDGE ( 'NONE', *, *, #12, .F. ) ;
#10 = APPROVAL_STATUS ( 'not_yet_approved' ) ;
#11 = DIRECTION ( 'NONE',  ( 0.0000000000000000000, 1.000000000000000000, 3.001251688541226777E-16 ) ) ;
#12 = EDGE_CURVE ( 'NONE', #148, #249, #84, .T. ) ;
#13 = PERSON_AND_ORGANIZATION ( #193, #7 ) ;
#14 = DATE_TIME_ROLE ( 'creation_date' ) ;
#15 = AXIS2_PLACEMENT_3D ( 'NONE', #168, #251, #113 ) ;
#16 = PERSON_AND_ORGANIZATION_ROLE ( 'design_supplier' ) ;
#17 = FACE_OUTER_BOUND ( 'NONE', #155, .T. ) ;
#18 = PRODUCT_DEFINITION_SHAPE ( 'NONE', 'NONE',  #103 ) ;
#19 = ORIENTED_EDGE ( 'NONE', *, *, #108, .T. ) ;
#20 = DATE_AND_TIME ( #74, #125 ) ;
#21 = ORIENTED_EDGE ( 'NONE', *, *, #108, .F. ) ;
#22 = ADVANCED_BREP_SHAPE_REPRESENTATION ( '20128-E0W', ( #57, #105 ), #77 ) ;
#23 = CC_DESIGN_PERSON_AND_ORGANIZATION_ASSIGNMENT ( #13, #88, ( #103 ) ) ;
#24 = DIRECTION ( 'NONE',  ( -0.0000000000000000000, 3.061515884555943146E-16, -1.000000000000000000 ) ) ;
#25 = DIRECTION ( 'NONE',  ( -1.000000000000000000, 0.0000000000000000000, 0.0000000000000000000 ) ) ;
#26 = EDGE_CURVE ( 'NONE', #247, #162, #187, .T. ) ;
#27 = COORDINATED_UNIVERSAL_TIME_OFFSET ( 5, 0, .BEHIND. ) ;
#28 = CARTESIAN_POINT ( 'NONE',  ( 0.0000000000000000000, 9.184547653667833134E-17, -0.2130000000000000782 ) ) ;
#29 = DIRECTION ( 'NONE',  ( 0.0000000000000000000, -3.061515884555941173E-16, 1.000000000000000000 ) ) ;
#30 = CARTESIAN_POINT ( 'NONE',  ( 0.0000000000000000000, 9.184547653667830669E-17, -0.2129999999999999949 ) ) ;
#31 = APPROVAL_DATE_TIME ( #20, #203 ) ;
#32 = EDGE_LOOP ( 'NONE', ( #173, #34, #128, #139 ) ) ;
#33 = CARTESIAN_POINT ( 'NONE',  ( 0.0000000000000000000, 0.0000000000000000000, 0.0000000000000000000 ) ) ;
#34 = ORIENTED_EDGE ( 'NONE', *, *, #41, .T. ) ;
#35 = PERSON_AND_ORGANIZATION_ROLE ( 'design_owner' ) ;
#36 = DIRECTION ( 'NONE',  ( -0.0000000000000000000, 3.061515884555943146E-16, -1.000000000000000000 ) ) ;
#37 = DIRECTION ( 'NONE',  ( 0.0000000000000000000, 1.000000000000000000, 3.061515884555943146E-16 ) ) ;
#38 = APPROVAL_PERSON_ORGANIZATION ( #79, #203, #40 ) ;
#39 = APPROVAL_ROLE ( '' ) ;
#40 = APPROVAL_ROLE ( '' ) ;
#41 = EDGE_CURVE ( 'NONE', #162, #76, #134, .T. ) ;
#42 = SPHERICAL_SURFACE ( 'NONE', #246, 0.8669999999999890017 ) ;
#43 = AXIS2_PLACEMENT_3D ( 'NONE', #28, #248, #188 ) ;
#44 = ORIENTED_EDGE ( 'NONE', *, *, #73, .T. ) ;
#45 = ADVANCED_FACE ( 'NONE', ( #159 ), #89, .T. ) ;
#46 = CARTESIAN_POINT ( 'NONE',  ( 0.0000000000000000000, 4.613447455078450609E-17, -0.06369160602273359062 ) ) ;
#47 = CARTESIAN_POINT ( 'NONE',  ( 0.0000000000000000000, 0.6349999999999954570, -0.1930000000000040850 ) ) ;
#48 = CARTESIAN_POINT ( 'NONE',  ( 0.0000000000000000000, 6.759827073099605453E-17, -0.6539999999999768221 ) ) ;
#49 = AXIS2_PLACEMENT_3D ( 'NONE', #176, #69, #37 ) ;
#50 = CARTESIAN_POINT ( 'NONE',  ( 0.0000000000000000000, -1.447467177169637523E-16, 0.2130000000000121241 ) ) ;
#51 = PLANE ( 'NONE',  #49 ) ;
#52 = ORIENTED_EDGE ( 'NONE', *, *, #53, .T. ) ;
#53 = EDGE_CURVE ( 'NONE', #54, #148, #75, .T. ) ;
#54 = VERTEX_POINT ( 'NONE', #4 ) ;
#55 = PERSON_AND_ORGANIZATION ( #193, #7 ) ;
#56 = FACE_OUTER_BOUND ( 'NONE', #32, .T. ) ;
#57 = MANIFOLD_SOLID_BREP ( '20128-001-1-solid1', #82 ) ;
#58 = CALENDAR_DATE ( 2019, 16, 7 ) ;
#59 = ORIENTED_EDGE ( 'NONE', *, *, #117, .T. ) ;
#60 = LINE ( 'NONE', #78, #129 ) ;
#61 = DIRECTION ( 'NONE',  ( 0.0000000000000000000, 1.000000000000000000, 2.731847993664282940E-16 ) ) ;
#62 = LOCAL_TIME ( 7, 10, 20.00000000000000000, #109 ) ;
#63 = CC_DESIGN_DATE_AND_TIME_ASSIGNMENT ( #154, #242, ( #184 ) ) ;
#64 = CARTESIAN_POINT ( 'NONE',  ( 0.0000000000000000000, 8.572244476756772449E-17, -0.1930000000000042792 ) ) ;
#65 = DIRECTION ( 'NONE',  ( 0.0000000000000000000, 1.000000000000000000, 3.073328992872318554E-16 ) ) ;
#66 = ORIENTED_EDGE ( 'NONE', *, *, #149, .F. ) ;
#67 =( LENGTH_UNIT ( ) NAMED_UNIT ( * ) SI_UNIT ( .CENTI., .METRE. ) );
#68 = CARTESIAN_POINT ( 'NONE',  ( 0.0000000000000000000, 8.572244476756772449E-17, -0.1930000000000042792 ) ) ;
#69 = DIRECTION ( 'NONE',  ( -0.0000000000000000000, 3.061515884555943146E-16, -1.000000000000000000 ) ) ;
#70 =( NAMED_UNIT ( * ) PLANE_ANGLE_UNIT ( ) SI_UNIT ( $, .RADIAN. ) );
#71 = COORDINATED_UNIVERSAL_TIME_OFFSET ( 5, 0, .BEHIND. ) ;
#72 = EDGE_LOOP ( 'NONE', ( #130, #90 ) ) ;
#73 = EDGE_CURVE ( 'NONE', #206, #249, #60, .T. ) ;
#74 = CALENDAR_DATE ( 2019, 16, 7 ) ;
#75 = LINE ( 'NONE', #115, #236 ) ;
#76 = VERTEX_POINT ( 'NONE', #114 ) ;
#77 =( GEOMETRIC_REPRESENTATION_CONTEXT ( 3 ) GLOBAL_UNCERTAINTY_ASSIGNED_CONTEXT ( ( #185 ) ) GLOBAL_UNIT_ASSIGNED_CONTEXT ( ( #67, #70, #191 ) ) REPRESENTATION_CONTEXT ( 'NONE', 'WORKASPACE' ) );
#78 = CARTESIAN_POINT ( 'NONE',  ( 0.0000000000000000000, -0.6149999999999996581, -0.2130000000000002447 ) ) ;
#79 = PERSON_AND_ORGANIZATION ( #193, #7 ) ;
#80 = SPHERICAL_SURFACE ( 'NONE', #145, 0.8669999999999890017 ) ;
#81 = CARTESIAN_POINT ( 'NONE',  ( 0.0000000000000000000, 9.184547653667834367E-17, -0.2130000000000000782 ) ) ;
#82 = CLOSED_SHELL ( 'NONE', ( #133, #244, #166, #223, #225, #112, #45 ) ) ;
#83 = APPLICATION_PROTOCOL_DEFINITION ( 'international standard', 'config_control_design', 1994, #175 ) ;
#84 = CIRCLE ( 'NONE', #245, 0.6349999999999953459 ) ;
#85 = DIRECTION ( 'NONE',  ( -0.0000000000000000000, 3.061515884555943146E-16, -1.000000000000000000 ) ) ;
#86 = AXIS2_PLACEMENT_3D ( 'NONE', #250, #25, #227 ) ;
#87 = CC_DESIGN_DATE_AND_TIME_ASSIGNMENT ( #150, #14, ( #103 ) ) ;
#88 = PERSON_AND_ORGANIZATION_ROLE ( 'creator' ) ;
#89 = CONICAL_SURFACE ( 'NONE', #43, 0.6149999999999997691, 0.7853981633974439491 ) ;
#90 = ORIENTED_EDGE ( 'NONE', *, *, #144, .T. ) ;
#91 = PERSON_AND_ORGANIZATION ( #193, #7 ) ;
#92 = CYLINDRICAL_SURFACE ( 'NONE', #170, 0.6349999999999953459 ) ;
#93 = ORIENTED_EDGE ( 'NONE', *, *, #161, .F. ) ;
#94 = CC_DESIGN_PERSON_AND_ORGANIZATION_ASSIGNMENT ( #180, #16, ( #132 ) ) ;
#95 = CARTESIAN_POINT ( 'NONE',  ( 7.776507174585636203E-17, -0.6349999999999953459, -0.2130000000000001614 ) ) ;
#96 = CIRCLE ( 'NONE', #197, 0.6349999999999909051 ) ;
#97 = DIRECTION ( 'NONE',  ( 8.659560562354895880E-17, 0.7071067811865442421, 0.7071067811865507924 ) ) ;
#98 = CC_DESIGN_APPROVAL ( #118, ( #103 ) ) ;
#99 = APPLICATION_CONTEXT ( 'configuration controlled 3d designs of mechanical parts and assemblies' ) ;
#100 = DATE_AND_TIME ( #169, #62 ) ;
#101 = SHAPE_DEFINITION_REPRESENTATION ( #18, #22 ) ;
#102 = CARTESIAN_POINT ( 'NONE',  ( 7.776507174585580736E-17, -0.6349999999999909051, -0.06369160602273371552 ) ) ;
#103 = PRODUCT_DEFINITION ( 'UNKNOWN', '', #132, #241 ) ;
#104 = LOCAL_TIME ( 7, 10, 20.00000000000000000, #27 ) ;
#105 = AXIS2_PLACEMENT_3D ( 'NONE', #33, #213, #234 ) ;
#106 = PERSON_AND_ORGANIZATION_ROLE ( 'creator' ) ;
#107 = ORIENTED_EDGE ( 'NONE', *, *, #161, .T. ) ;
#108 = EDGE_CURVE ( 'NONE', #247, #76, #182, .T. ) ;
#109 = COORDINATED_UNIVERSAL_TIME_OFFSET ( 5, 0, .BEHIND. ) ;
#110 = ORIENTED_EDGE ( 'NONE', *, *, #217, .F. ) ;
#111 = CC_DESIGN_PERSON_AND_ORGANIZATION_ASSIGNMENT ( #91, #106, ( #132 ) ) ;
#112 = ADVANCED_FACE ( 'NONE', ( #56 ), #92, .T. ) ;
#113 = DIRECTION ( 'NONE',  ( -1.224646799147353207E-16, 1.000000000000000000, 0.0000000000000000000 ) ) ;
#114 = CARTESIAN_POINT ( 'NONE',  ( 0.0000000000000000000, 0.6349999999999909051, -0.06369160602273335470 ) ) ;
#115 = CARTESIAN_POINT ( 'NONE',  ( 7.531577814756219106E-17, 0.6149999999999998801, -0.2129999999999999116 ) ) ;
#116 = PERSON_AND_ORGANIZATION ( #193, #7 ) ;
#117 = EDGE_CURVE ( 'NONE', #162, #249, #164, .T. ) ;
#118 = APPROVAL ( #10, 'UNSPECIFIED' ) ;
#119 = APPLICATION_PROTOCOL_DEFINITION ( 'international standard', 'config_control_design', 1994, #99 ) ;
#120 = DIRECTION ( 'NONE',  ( 0.0000000000000000000, -3.061515884555941173E-16, 1.000000000000000000 ) ) ;
#121 = DIRECTION ( 'NONE',  ( -0.0000000000000000000, 3.061515884555943146E-16, -1.000000000000000000 ) ) ;
#122 = APPROVAL_DATE_TIME ( #100, #118 ) ;
#123 = AXIS2_PLACEMENT_3D ( 'NONE', #30, #85, #5 ) ;
#124 = APPROVAL_STATUS ( 'not_yet_approved' ) ;
#125 = LOCAL_TIME ( 7, 10, 20.00000000000000000, #71 ) ;
#126 = CIRCLE ( 'NONE', #146, 0.6149999999999997691 ) ;
#127 = EDGE_LOOP ( 'NONE', ( #131, #52, #221, #183 ) ) ;
#128 = ORIENTED_EDGE ( 'NONE', *, *, #149, .T. ) ;
#129 = VECTOR ( 'NONE', #135, 100.0000000000000000 ) ;
#130 = ORIENTED_EDGE ( 'NONE', *, *, #217, .T. ) ;
#131 = ORIENTED_EDGE ( 'NONE', *, *, #144, .F. ) ;
#132 = PRODUCT_DEFINITION_FORMATION_WITH_SPECIFIED_SOURCE ( 'ANY', '', #3, .NOT_KNOWN. ) ;
#133 = ADVANCED_FACE ( 'NONE', ( #198 ), #200, .T. ) ;
#134 = CIRCLE ( 'NONE', #181, 0.6349999999999909051 ) ;
#135 = DIRECTION ( 'NONE',  ( 0.0000000000000000000, -0.7071067811865446862, 0.7071067811865503483 ) ) ;
#136 = AXIS2_PLACEMENT_3D ( 'NONE', #174, #120, #235 ) ;
#137 = PRODUCT_RELATED_PRODUCT_CATEGORY ( 'detail', '', ( #3 ) ) ;
#138 = CALENDAR_DATE ( 2019, 16, 7 ) ;
#139 = ORIENTED_EDGE ( 'NONE', *, *, #12, .T. ) ;
#140 = CARTESIAN_POINT ( 'NONE',  ( 0.0000000000000000000, 6.759827073099605453E-17, -0.6539999999999768221 ) ) ;
#141 = CARTESIAN_POINT ( 'NONE',  ( 0.0000000000000000000, 4.613447455078450609E-17, -0.06369160602273359062 ) ) ;
#142 = DIRECTION ( 'NONE',  ( -0.0000000000000000000, 3.061515884555943146E-16, -1.000000000000000000 ) ) ;
#143 = FACE_OUTER_BOUND ( 'NONE', #72, .T. ) ;
#144 = EDGE_CURVE ( 'NONE', #54, #206, #126, .T. ) ;
#145 = AXIS2_PLACEMENT_3D ( 'NONE', #48, #190, #11 ) ;
#146 = AXIS2_PLACEMENT_3D ( 'NONE', #81, #178, #212 ) ;
#147 = APPROVAL_PERSON_ORGANIZATION ( #163, #118, #39 ) ;
#148 = VERTEX_POINT ( 'NONE', #47 ) ;
#149 = EDGE_CURVE ( 'NONE', #76, #148, #2, .T. ) ;
#150 = DATE_AND_TIME ( #229, #202 ) ;
#151 = VECTOR ( 'NONE', #142, 100.0000000000000000 ) ;
#152 = CC_DESIGN_SECURITY_CLASSIFICATION ( #184, ( #132 ) ) ;
#153 = CARTESIAN_POINT ( 'NONE',  ( 0.0000000000000000000, 9.184547653667830669E-17, -0.2129999999999999949 ) ) ;
#154 = DATE_AND_TIME ( #138, #171 ) ;
#155 = EDGE_LOOP ( 'NONE', ( #107, #59, #240, #66 ) ) ;
#156 = CARTESIAN_POINT ( 'NONE',  ( 7.776507174585636203E-17, -0.6349999999999953459, -0.1930000000000044735 ) ) ;
#157 = DIRECTION ( 'NONE',  ( 0.0000000000000000000, 1.000000000000000000, 3.001251688541226777E-16 ) ) ;
#158 = CC_DESIGN_APPROVAL ( #214, ( #132 ) ) ;
#159 = FACE_OUTER_BOUND ( 'NONE', #204, .T. ) ;
#160 = DIRECTION ( 'NONE',  ( 0.0000000000000000000, 1.000000000000000000, 3.073328992872340248E-16 ) ) ;
#161 = EDGE_CURVE ( 'NONE', #76, #162, #96, .T. ) ;
#162 = VERTEX_POINT ( 'NONE', #102 ) ;
#163 = PERSON_AND_ORGANIZATION ( #193, #7 ) ;
#164 = LINE ( 'NONE', #95, #8 ) ;
#165 = PERSON_AND_ORGANIZATION ( #193, #7 ) ;
#166 = ADVANCED_FACE ( 'NONE', ( #194 ), #80, .T. ) ;
#167 = AXIS2_PLACEMENT_3D ( 'NONE', #68, #211, #65 ) ;
#168 = CARTESIAN_POINT ( 'NONE',  ( 0.0000000000000000000, 6.759827073099605453E-17, -0.6539999999999768221 ) ) ;
#169 = CALENDAR_DATE ( 2019, 16, 7 ) ;
#170 = AXIS2_PLACEMENT_3D ( 'NONE', #153, #24, #61 ) ;
#171 = LOCAL_TIME ( 7, 10, 20.00000000000000000, #238 ) ;
#172 = DIRECTION ( 'NONE',  ( 0.0000000000000000000, 1.000000000000000000, 2.820688578824077438E-16 ) ) ;
#173 = ORIENTED_EDGE ( 'NONE', *, *, #117, .F. ) ;
#174 = CARTESIAN_POINT ( 'NONE',  ( 0.0000000000000000000, 9.184547653667833134E-17, -0.2130000000000000782 ) ) ;
#175 = APPLICATION_CONTEXT ( 'configuration controlled 3d designs of mechanical parts and assemblies' ) ;
#176 = CARTESIAN_POINT ( 'NONE',  ( 0.0000000000000000000, 9.184547653667834367E-17, -0.2130000000000000782 ) ) ;
#177 = FACE_OUTER_BOUND ( 'NONE', #210, .T. ) ;
#178 = DIRECTION ( 'NONE',  ( -0.0000000000000000000, 3.061515884555943146E-16, -1.000000000000000000 ) ) ;
#179 = APPROVAL_ROLE ( '' ) ;
#180 = PERSON_AND_ORGANIZATION ( #193, #7 ) ;
#181 = AXIS2_PLACEMENT_3D ( 'NONE', #46, #205, #207 ) ;
#182 = CIRCLE ( 'NONE', #86, 0.8669999999999890017 ) ;
#183 = ORIENTED_EDGE ( 'NONE', *, *, #73, .F. ) ;
#184 = SECURITY_CLASSIFICATION ( '', '', #199 ) ;
#185 = UNCERTAINTY_MEASURE_WITH_UNIT (LENGTH_MEASURE( 1.000000000000000082E-05 ), #67, 'distance_accuracy_value', 'NONE');
#186 = ORIENTED_EDGE ( 'NONE', *, *, #26, .F. ) ;
#187 = CIRCLE ( 'NONE', #15, 0.8669999999999890017 ) ;
#188 = DIRECTION ( 'NONE',  ( 0.0000000000000000000, -1.000000000000000000, -2.820688578824077438E-16 ) ) ;
#189 = ORIENTED_EDGE ( 'NONE', *, *, #41, .F. ) ;
#190 = DIRECTION ( 'NONE',  ( 1.000000000000000000, 0.0000000000000000000, -0.0000000000000000000 ) ) ;
#191 =( NAMED_UNIT ( * ) SI_UNIT ( $, .STERADIAN. ) SOLID_ANGLE_UNIT ( ) );
#192 = CC_DESIGN_PERSON_AND_ORGANIZATION_ASSIGNMENT ( #116, #196, ( #184 ) ) ;
#193 = PERSON ( 'UNSPECIFIED', 'UNSPECIFIED', 'UNSPECIFIED', ('UNSPECIFIED'), ('UNSPECIFIED'), ('UNSPECIFIED') ) ;
#194 = FACE_OUTER_BOUND ( 'NONE', #201, .T. ) ;
#195 = DIRECTION ( 'NONE',  ( 1.000000000000000000, 0.0000000000000000000, -0.0000000000000000000 ) ) ;
#196 = PERSON_AND_ORGANIZATION_ROLE ( 'classification_officer' ) ;
#197 = AXIS2_PLACEMENT_3D ( 'NONE', #141, #121, #160 ) ;
#198 = FACE_OUTER_BOUND ( 'NONE', #127, .T. ) ;
#199 = SECURITY_CLASSIFICATION_LEVEL ( 'unclassified' ) ;
#200 = CONICAL_SURFACE ( 'NONE', #136, 0.6149999999999997691, 0.7853981633974439491 ) ;
#201 = EDGE_LOOP ( 'NONE', ( #21, #232, #93 ) ) ;
#202 = LOCAL_TIME ( 7, 10, 20.00000000000000000, #218 ) ;
#203 = APPROVAL ( #124, 'UNSPECIFIED' ) ;
#204 = EDGE_LOOP ( 'NONE', ( #231, #110, #44, #9 ) ) ;
#205 = DIRECTION ( 'NONE',  ( -0.0000000000000000000, 3.061515884555943146E-16, -1.000000000000000000 ) ) ;
#206 = VERTEX_POINT ( 'NONE', #233 ) ;
#207 = DIRECTION ( 'NONE',  ( 0.0000000000000000000, 1.000000000000000000, 3.073328992872340248E-16 ) ) ;
#208 = DIRECTION ( 'NONE',  ( 0.0000000000000000000, 1.000000000000000000, 3.073328992872318554E-16 ) ) ;
#209 = AXIS2_PLACEMENT_3D ( 'NONE', #237, #36, #172 ) ;
#210 = EDGE_LOOP ( 'NONE', ( #186, #19, #189 ) ) ;
#211 = DIRECTION ( 'NONE',  ( 0.0000000000000000000, -3.061515884555941173E-16, 1.000000000000000000 ) ) ;
#212 = DIRECTION ( 'NONE',  ( 0.0000000000000000000, 1.000000000000000000, 2.820688578824077438E-16 ) ) ;
#213 = DIRECTION ( 'NONE',  ( 0.0000000000000000000, 0.0000000000000000000, 1.000000000000000000 ) ) ;
#214 = APPROVAL ( #220, 'UNSPECIFIED' ) ;
#215 = APPROVAL_DATE_TIME ( #1, #214 ) ;
#216 = CC_DESIGN_APPROVAL ( #203, ( #184 ) ) ;
#217 = EDGE_CURVE ( 'NONE', #206, #54, #226, .T. ) ;
#218 = COORDINATED_UNIVERSAL_TIME_OFFSET ( 5, 0, .BEHIND. ) ;
#219 = CYLINDRICAL_SURFACE ( 'NONE', #123, 0.6349999999999953459 ) ;
#220 = APPROVAL_STATUS ( 'not_yet_approved' ) ;
#221 = ORIENTED_EDGE ( 'NONE', *, *, #243, .F. ) ;
#222 = APPROVAL_PERSON_ORGANIZATION ( #55, #214, #179 ) ;
#223 = ADVANCED_FACE ( 'NONE', ( #143 ), #51, .T. ) ;
#224 = CC_DESIGN_PERSON_AND_ORGANIZATION_ASSIGNMENT ( #165, #35, ( #3 ) ) ;
#225 = ADVANCED_FACE ( 'NONE', ( #177 ), #42, .T. ) ;
#226 = CIRCLE ( 'NONE', #209, 0.6149999999999997691 ) ;
#227 = DIRECTION ( 'NONE',  ( 0.0000000000000000000, 0.0000000000000000000, 1.000000000000000000 ) ) ;
#228 = DIRECTION ( 'NONE',  ( -0.0000000000000000000, 3.061515884555943146E-16, -1.000000000000000000 ) ) ;
#229 = CALENDAR_DATE ( 2019, 16, 7 ) ;
#230 = MECHANICAL_CONTEXT ( 'NONE', #99, 'mechanical' ) ;
#231 = ORIENTED_EDGE ( 'NONE', *, *, #53, .F. ) ;
#232 = ORIENTED_EDGE ( 'NONE', *, *, #26, .T. ) ;
#233 = CARTESIAN_POINT ( 'NONE',  ( 0.0000000000000000000, -0.6149999999999996581, -0.2130000000000002447 ) ) ;
#234 = DIRECTION ( 'NONE',  ( 1.000000000000000000, 0.0000000000000000000, 0.0000000000000000000 ) ) ;
#235 = DIRECTION ( 'NONE',  ( 0.0000000000000000000, -1.000000000000000000, -2.820688578824077438E-16 ) ) ;
#236 = VECTOR ( 'NONE', #97, 100.0000000000000000 ) ;
#237 = CARTESIAN_POINT ( 'NONE',  ( 0.0000000000000000000, 9.184547653667834367E-17, -0.2130000000000000782 ) ) ;
#238 = COORDINATED_UNIVERSAL_TIME_OFFSET ( 5, 0, .BEHIND. ) ;
#239 = CIRCLE ( 'NONE', #167, 0.6349999999999953459 ) ;
#240 = ORIENTED_EDGE ( 'NONE', *, *, #243, .T. ) ;
#241 = DESIGN_CONTEXT ( 'detailed design', #175, 'design' ) ;
#242 = DATE_TIME_ROLE ( 'classification_date' ) ;
#243 = EDGE_CURVE ( 'NONE', #249, #148, #239, .T. ) ;
#244 = ADVANCED_FACE ( 'NONE', ( #17 ), #219, .T. ) ;
#245 = AXIS2_PLACEMENT_3D ( 'NONE', #64, #29, #208 ) ;
#246 = AXIS2_PLACEMENT_3D ( 'NONE', #140, #195, #157 ) ;
#247 = VERTEX_POINT ( 'NONE', #50 ) ;
#248 = DIRECTION ( 'NONE',  ( 0.0000000000000000000, -3.061515884555941173E-16, 1.000000000000000000 ) ) ;
#249 = VERTEX_POINT ( 'NONE', #156 ) ;
#250 = CARTESIAN_POINT ( 'NONE',  ( 0.0000000000000000000, 6.759827073099605453E-17, -0.6539999999999768221 ) ) ;
#251 = DIRECTION ( 'NONE',  ( 1.000000000000000000, 1.224646799147353207E-16, 3.749275628560213616E-32 ) ) ;
ENDSEC;
END-ISO-10303-21;
