ISO-10303-21;
HEADER;
FILE_DESCRIPTION (( 'STEP AP203' ),
    '1' );
FILE_NAME ('Web Model 36659_36659.step',
    '2019-01-11T14:25:58',
    ( '' ),
    ( '' ),
    'SwSTEP 2.0',
    'SolidWorks 2016',
    '' );
FILE_SCHEMA (( 'CONFIG_CONTROL_DESIGN' ));
ENDSEC;

DATA;
#1 = AXIS2_PLACEMENT_3D ( 'NONE', #30, #139, #141 ) ;
#2 = DIRECTION ( 'NONE',  ( 1.000000000000000000, 0.0000000000000000000, 0.0000000000000000000 ) ) ;
#3 = CARTESIAN_POINT ( 'NONE',  ( -25.00000000000000000, 0.0000000000000000000, -1.500000000000000000 ) ) ;
#4 = APPROVAL ( #36, 'UNSPECIFIED' ) ;
#5 = APPROVAL_STATUS ( 'not_yet_approved' ) ;
#6 = APPROVAL_ROLE ( '' ) ;
#7 = PERSON_AND_ORGANIZATION_ROLE ( 'classification_officer' ) ;
#8 = CALENDAR_DATE ( 2019, 11, 1 ) ;
#9 = VERTEX_POINT ( 'NONE', #66 ) ;
#10 = APPROVAL_ROLE ( '' ) ;
#11 = DATE_AND_TIME ( #8, #150 ) ;
#12 = CARTESIAN_POINT ( 'NONE',  ( 25.00000000000000000, 3.061616997868383000E-015, 1.500000000000000000 ) ) ;
#13 = ORIENTED_EDGE ( 'NONE', *, *, #93, .T. ) ;
#14 = CARTESIAN_POINT ( 'NONE',  ( -25.00000000000000000, 0.0000000000000000000, 1.500000000000000000 ) ) ;
#15 = DIRECTION ( 'NONE',  ( -1.000000000000000000, 0.0000000000000000000, 0.0000000000000000000 ) ) ;
#16 = DIRECTION ( 'NONE',  ( -1.000000000000000000, 0.0000000000000000000, 0.0000000000000000000 ) ) ;
#17 = DIRECTION ( 'NONE',  ( 0.0000000000000000000, 0.0000000000000000000, 1.000000000000000000 ) ) ;
#18 = APPLICATION_CONTEXT ( 'configuration controlled 3d designs of mechanical parts and assemblies' ) ;
#19 = COORDINATED_UNIVERSAL_TIME_OFFSET ( 5, 0, .BEHIND. ) ;
#20 = ORIENTED_EDGE ( 'NONE', *, *, #110, .F. ) ;
#21 = PERSON_AND_ORGANIZATION_ROLE ( 'creator' ) ;
#22 = AXIS2_PLACEMENT_3D ( 'NONE', #154, #80, #16 ) ;
#23 = PRODUCT_DEFINITION_SHAPE ( 'NONE', 'NONE',  #140 ) ;
#24 = CC_DESIGN_PERSON_AND_ORGANIZATION_ASSIGNMENT ( #97, #7, ( #54 ) ) ;
#25 = APPROVAL_PERSON_ORGANIZATION ( #162, #98, #10 ) ;
#26 = FACE_OUTER_BOUND ( 'NONE', #171, .T. ) ;
#27 = LOCAL_TIME ( 9, 25, 58.00000000000000000, #70 ) ;
#28 = UNCERTAINTY_MEASURE_WITH_UNIT (LENGTH_MEASURE( 1.000000000000000100E-005 ), #63, 'distance_accuracy_value', 'NONE');
#29 = ORIENTED_EDGE ( 'NONE', *, *, #167, .T. ) ;
#30 = CARTESIAN_POINT ( 'NONE',  ( 0.0000000000000000000, 0.0000000000000000000, -1.500000000000000000 ) ) ;
#31 = CC_DESIGN_APPROVAL ( #98, ( #88 ) ) ;
#32 = DIRECTION ( 'NONE',  ( 1.000000000000000000, 0.0000000000000000000, 0.0000000000000000000 ) ) ;
#33 = DIRECTION ( 'NONE',  ( -0.0000000000000000000, -0.0000000000000000000, -1.000000000000000000 ) ) ;
#34 = SECURITY_CLASSIFICATION_LEVEL ( 'unclassified' ) ;
#35 = ORIENTED_EDGE ( 'NONE', *, *, #74, .T. ) ;
#36 = APPROVAL_STATUS ( 'not_yet_approved' ) ;
#37 = PERSON_AND_ORGANIZATION_ROLE ( 'design_owner' ) ;
#38 = PRODUCT ( 'Web Model 36659_36659', 'Web Model 36659_36659', '', ( #142 ) ) ;
#39 = APPROVAL_PERSON_ORGANIZATION ( #101, #71, #6 ) ;
#40 = DESIGN_CONTEXT ( 'detailed design', #117, 'design' ) ;
#41 = CC_DESIGN_PERSON_AND_ORGANIZATION_ASSIGNMENT ( #143, #21, ( #88 ) ) ;
#42 = AXIS2_PLACEMENT_3D ( 'NONE', #129, #47, #127 ) ;
#43 = ADVANCED_FACE ( 'NONE', ( #102 ), #91, .F. ) ;
#44 = CARTESIAN_POINT ( 'NONE',  ( 0.0000000000000000000, 0.0000000000000000000, 1.500000000000000000 ) ) ;
#45 = LINE ( 'NONE', #12, #119 ) ;
#46 = EDGE_LOOP ( 'NONE', ( #20, #90, #13, #35 ) ) ;
#47 = DIRECTION ( 'NONE',  ( 0.0000000000000000000, 0.0000000000000000000, 1.000000000000000000 ) ) ;
#48 = CARTESIAN_POINT ( 'NONE',  ( 25.00000000000000000, 3.061616997868383000E-015, 1.500000000000000000 ) ) ;
#49 = ORIENTED_EDGE ( 'NONE', *, *, #85, .T. ) ;
#50 = LINE ( 'NONE', #14, #128 ) ;
#51 = ORIENTED_EDGE ( 'NONE', *, *, #110, .T. ) ;
#52 = AXIS2_PLACEMENT_3D ( 'NONE', #103, #79, #2 ) ;
#53 = CALENDAR_DATE ( 2019, 11, 1 ) ;
#54 = SECURITY_CLASSIFICATION ( '', '', #34 ) ;
#55 = CALENDAR_DATE ( 2019, 11, 1 ) ;
#56 = CIRCLE ( 'NONE', #42, 25.00000000000000000 ) ;
#57 = ADVANCED_FACE ( 'NONE', ( #164 ), #160, .T. ) ;
#58 = CC_DESIGN_PERSON_AND_ORGANIZATION_ASSIGNMENT ( #174, #130, ( #88 ) ) ;
#59 = AXIS2_PLACEMENT_3D ( 'NONE', #104, #125, #165 ) ;
#60 = CYLINDRICAL_SURFACE ( 'NONE', #153, 25.00000000000000000 ) ;
#61 = DIRECTION ( 'NONE',  ( -0.0000000000000000000, -0.0000000000000000000, -1.000000000000000000 ) ) ;
#62 = CC_DESIGN_APPROVAL ( #4, ( #54 ) ) ;
#63 =( LENGTH_UNIT ( ) NAMED_UNIT ( * ) SI_UNIT ( .MILLI., .METRE. ) );
#64 = AXIS2_PLACEMENT_3D ( 'NONE', #44, #138, #32 ) ;
#65 = VERTEX_POINT ( 'NONE', #3 ) ;
#66 = CARTESIAN_POINT ( 'NONE',  ( -25.00000000000000000, 0.0000000000000000000, 1.500000000000000000 ) ) ;
#67 = APPLICATION_PROTOCOL_DEFINITION ( 'international standard', 'config_control_design', 1994, #18 ) ;
#68 = LOCAL_TIME ( 9, 25, 58.00000000000000000, #95 ) ;
#69 = DATE_AND_TIME ( #107, #96 ) ;
#70 = COORDINATED_UNIVERSAL_TIME_OFFSET ( 5, 0, .BEHIND. ) ;
#71 = APPROVAL ( #5, 'UNSPECIFIED' ) ;
#72 = ORIENTED_EDGE ( 'NONE', *, *, #123, .T. ) ;
#73 = ADVANCED_FACE ( 'NONE', ( #26 ), #175, .T. ) ;
#74 = EDGE_CURVE ( 'NONE', #65, #134, #173, .T. ) ;
#75 = LOCAL_TIME ( 9, 25, 58.00000000000000000, #19 ) ;
#76 = CIRCLE ( 'NONE', #52, 25.00000000000000000 ) ;
#77 = ORIENTED_EDGE ( 'NONE', *, *, #93, .F. ) ;
#78 = DIRECTION ( 'NONE',  ( 1.000000000000000000, 0.0000000000000000000, -0.0000000000000000000 ) ) ;
#79 = DIRECTION ( 'NONE',  ( 0.0000000000000000000, 0.0000000000000000000, 1.000000000000000000 ) ) ;
#80 = DIRECTION ( 'NONE',  ( -0.0000000000000000000, -0.0000000000000000000, -1.000000000000000000 ) ) ;
#81 = CC_DESIGN_DATE_AND_TIME_ASSIGNMENT ( #89, #83, ( #140 ) ) ;
#82 =( NAMED_UNIT ( * ) SI_UNIT ( $, .STERADIAN. ) SOLID_ANGLE_UNIT ( ) );
#83 = DATE_TIME_ROLE ( 'creation_date' ) ;
#84 = APPROVAL_STATUS ( 'not_yet_approved' ) ;
#85 = EDGE_CURVE ( 'NONE', #9, #87, #76, .T. ) ;
#86 = EDGE_LOOP ( 'NONE', ( #108, #137 ) ) ;
#87 = VERTEX_POINT ( 'NONE', #48 ) ;
#88 = PRODUCT_DEFINITION_FORMATION_WITH_SPECIFIED_SOURCE ( 'ANY', '', #38, .NOT_KNOWN. ) ;
#89 = DATE_AND_TIME ( #121, #27 ) ;
#90 = ORIENTED_EDGE ( 'NONE', *, *, #85, .F. ) ;
#91 = PLANE ( 'NONE',  #1 ) ;
#92 = CARTESIAN_POINT ( 'NONE',  ( 0.0000000000000000000, 0.0000000000000000000, 1.500000000000000000 ) ) ;
#93 = EDGE_CURVE ( 'NONE', #9, #65, #50, .T. ) ;
#94 =( NAMED_UNIT ( * ) PLANE_ANGLE_UNIT ( ) SI_UNIT ( $, .RADIAN. ) );
#95 = COORDINATED_UNIVERSAL_TIME_OFFSET ( 5, 0, .BEHIND. ) ;
#96 = LOCAL_TIME ( 9, 25, 58.00000000000000000, #172 ) ;
#97 = PERSON_AND_ORGANIZATION ( #132, #111 ) ;
#98 = APPROVAL ( #84, 'UNSPECIFIED' ) ;
#99 = SHAPE_DEFINITION_REPRESENTATION ( #23, #169 ) ;
#100 =( GEOMETRIC_REPRESENTATION_CONTEXT ( 3 ) GLOBAL_UNCERTAINTY_ASSIGNED_CONTEXT ( ( #28 ) ) GLOBAL_UNIT_ASSIGNED_CONTEXT ( ( #63, #94, #82 ) ) REPRESENTATION_CONTEXT ( 'NONE', 'WORKASPACE' ) );
#101 = PERSON_AND_ORGANIZATION ( #132, #111 ) ;
#102 = FACE_OUTER_BOUND ( 'NONE', #86, .T. ) ;
#103 = CARTESIAN_POINT ( 'NONE',  ( 0.0000000000000000000, 0.0000000000000000000, 1.500000000000000000 ) ) ;
#104 = CARTESIAN_POINT ( 'NONE',  ( 0.0000000000000000000, 0.0000000000000000000, 0.0000000000000000000 ) ) ;
#105 = CLOSED_SHELL ( 'NONE', ( #122, #57, #73, #43 ) ) ;
#106 = DATE_TIME_ROLE ( 'classification_date' ) ;
#107 = CALENDAR_DATE ( 2019, 11, 1 ) ;
#108 = ORIENTED_EDGE ( 'NONE', *, *, #74, .F. ) ;
#109 = PERSON_AND_ORGANIZATION ( #132, #111 ) ;
#110 = EDGE_CURVE ( 'NONE', #87, #134, #45, .T. ) ;
#111 = ORGANIZATION ( 'UNSPECIFIED', 'UNSPECIFIED', '' ) ;
#112 = APPROVAL_DATE_TIME ( #136, #98 ) ;
#113 = CIRCLE ( 'NONE', #64, 25.00000000000000000 ) ;
#114 = CARTESIAN_POINT ( 'NONE',  ( 0.0000000000000000000, 0.0000000000000000000, -1.500000000000000000 ) ) ;
#115 = APPROVAL_DATE_TIME ( #146, #4 ) ;
#116 = DIRECTION ( 'NONE',  ( 1.000000000000000000, 0.0000000000000000000, 0.0000000000000000000 ) ) ;
#117 = APPLICATION_CONTEXT ( 'configuration controlled 3d designs of mechanical parts and assemblies' ) ;
#118 = APPLICATION_PROTOCOL_DEFINITION ( 'international standard', 'config_control_design', 1994, #117 ) ;
#119 = VECTOR ( 'NONE', #126, 1000.000000000000000 ) ;
#120 = EDGE_LOOP ( 'NONE', ( #124, #51, #72, #77 ) ) ;
#121 = CALENDAR_DATE ( 2019, 11, 1 ) ;
#122 = ADVANCED_FACE ( 'NONE', ( #147 ), #60, .T. ) ;
#123 = EDGE_CURVE ( 'NONE', #134, #65, #56, .T. ) ;
#124 = ORIENTED_EDGE ( 'NONE', *, *, #167, .F. ) ;
#125 = DIRECTION ( 'NONE',  ( 0.0000000000000000000, 0.0000000000000000000, 1.000000000000000000 ) ) ;
#126 = DIRECTION ( 'NONE',  ( -0.0000000000000000000, -0.0000000000000000000, -1.000000000000000000 ) ) ;
#127 = DIRECTION ( 'NONE',  ( 1.000000000000000000, 0.0000000000000000000, 0.0000000000000000000 ) ) ;
#128 = VECTOR ( 'NONE', #33, 1000.000000000000000 ) ;
#129 = CARTESIAN_POINT ( 'NONE',  ( 0.0000000000000000000, 0.0000000000000000000, -1.500000000000000000 ) ) ;
#130 = PERSON_AND_ORGANIZATION_ROLE ( 'design_supplier' ) ;
#131 = CC_DESIGN_DATE_AND_TIME_ASSIGNMENT ( #11, #106, ( #54 ) ) ;
#132 = PERSON ( 'UNSPECIFIED', 'UNSPECIFIED', 'UNSPECIFIED', ('UNSPECIFIED'), ('UNSPECIFIED'), ('UNSPECIFIED') ) ;
#133 = CC_DESIGN_PERSON_AND_ORGANIZATION_ASSIGNMENT ( #159, #37, ( #38 ) ) ;
#134 = VERTEX_POINT ( 'NONE', #163 ) ;
#135 = AXIS2_PLACEMENT_3D ( 'NONE', #152, #17, #78 ) ;
#136 = DATE_AND_TIME ( #53, #75 ) ;
#137 = ORIENTED_EDGE ( 'NONE', *, *, #123, .F. ) ;
#138 = DIRECTION ( 'NONE',  ( 0.0000000000000000000, 0.0000000000000000000, 1.000000000000000000 ) ) ;
#139 = DIRECTION ( 'NONE',  ( 0.0000000000000000000, 0.0000000000000000000, 1.000000000000000000 ) ) ;
#140 = PRODUCT_DEFINITION ( 'UNKNOWN', '', #88, #40 ) ;
#141 = DIRECTION ( 'NONE',  ( 1.000000000000000000, 0.0000000000000000000, -0.0000000000000000000 ) ) ;
#142 = MECHANICAL_CONTEXT ( 'NONE', #18, 'mechanical' ) ;
#143 = PERSON_AND_ORGANIZATION ( #132, #111 ) ;
#144 = PERSON_AND_ORGANIZATION_ROLE ( 'creator' ) ;
#145 = APPROVAL_ROLE ( '' ) ;
#146 = DATE_AND_TIME ( #55, #68 ) ;
#147 = FACE_OUTER_BOUND ( 'NONE', #120, .T. ) ;
#148 = AXIS2_PLACEMENT_3D ( 'NONE', #114, #161, #116 ) ;
#149 = PRODUCT_RELATED_PRODUCT_CATEGORY ( 'detail', '', ( #38 ) ) ;
#150 = LOCAL_TIME ( 9, 25, 58.00000000000000000, #166 ) ;
#151 = CC_DESIGN_APPROVAL ( #71, ( #140 ) ) ;
#152 = CARTESIAN_POINT ( 'NONE',  ( 0.0000000000000000000, 0.0000000000000000000, 1.500000000000000000 ) ) ;
#153 = AXIS2_PLACEMENT_3D ( 'NONE', #92, #61, #15 ) ;
#154 = CARTESIAN_POINT ( 'NONE',  ( 0.0000000000000000000, 0.0000000000000000000, 1.500000000000000000 ) ) ;
#155 = APPROVAL_DATE_TIME ( #69, #71 ) ;
#156 = CC_DESIGN_SECURITY_CLASSIFICATION ( #54, ( #88 ) ) ;
#157 = CC_DESIGN_PERSON_AND_ORGANIZATION_ASSIGNMENT ( #168, #144, ( #140 ) ) ;
#158 = MANIFOLD_SOLID_BREP ( 'Boss-Extrude1', #105 ) ;
#159 = PERSON_AND_ORGANIZATION ( #132, #111 ) ;
#160 = CYLINDRICAL_SURFACE ( 'NONE', #22, 25.00000000000000000 ) ;
#161 = DIRECTION ( 'NONE',  ( 0.0000000000000000000, 0.0000000000000000000, 1.000000000000000000 ) ) ;
#162 = PERSON_AND_ORGANIZATION ( #132, #111 ) ;
#163 = CARTESIAN_POINT ( 'NONE',  ( 25.00000000000000000, 3.061616997868383000E-015, -1.500000000000000000 ) ) ;
#164 = FACE_OUTER_BOUND ( 'NONE', #46, .T. ) ;
#165 = DIRECTION ( 'NONE',  ( 1.000000000000000000, 0.0000000000000000000, 0.0000000000000000000 ) ) ;
#166 = COORDINATED_UNIVERSAL_TIME_OFFSET ( 5, 0, .BEHIND. ) ;
#167 = EDGE_CURVE ( 'NONE', #87, #9, #113, .T. ) ;
#168 = PERSON_AND_ORGANIZATION ( #132, #111 ) ;
#169 = ADVANCED_BREP_SHAPE_REPRESENTATION ( 'Web Model 36659_36659', ( #158, #59 ), #100 ) ;
#170 = APPROVAL_PERSON_ORGANIZATION ( #109, #4, #145 ) ;
#171 = EDGE_LOOP ( 'NONE', ( #49, #29 ) ) ;
#172 = COORDINATED_UNIVERSAL_TIME_OFFSET ( 5, 0, .BEHIND. ) ;
#173 = CIRCLE ( 'NONE', #148, 25.00000000000000000 ) ;
#174 = PERSON_AND_ORGANIZATION ( #132, #111 ) ;
#175 = PLANE ( 'NONE',  #135 ) ;
ENDSEC;
END-ISO-10303-21;
