ISO-10303-21;
HEADER;
FILE_DESCRIPTION (( 'STEP AP214' ),
    '1' );
FILE_NAME ('4792-E0W.STEP',
    '2009-12-21T17:09:23',
    ( ' ' ),
    ( ' ' ),
    'SwSTEP 2.0',
    'SolidWorks 2009',
    '' );
FILE_SCHEMA (( 'AUTOMOTIVE_DESIGN' ));
ENDSEC;

DATA;
#1 =( NAMED_UNIT ( * ) SI_UNIT ( $, .STERADIAN. ) SOLID_ANGLE_UNIT ( ) );
#2 = UNCERTAINTY_MEASURE_WITH_UNIT (LENGTH_MEASURE( 1.000000000000000100E-005 ), #169, 'distance_accuracy_value', 'NONE');
#3 =( GEOMETRIC_REPRESENTATION_CONTEXT ( 3 ) GLOBAL_UNCERTAINTY_ASSIGNED_CONTEXT ( ( #2 ) ) GLOBAL_UNIT_ASSIGNED_CONTEXT ( ( #169, #4, #1 ) ) REPRESENTATION_CONTEXT ( 'NONE', 'WORKASPACE' ) );
#4 =( NAMED_UNIT ( * ) PLANE_ANGLE_UNIT ( ) SI_UNIT ( $, .RADIAN. ) );
#5 = PRODUCT_RELATED_PRODUCT_CATEGORY ( 'part', '', ( #18 ) ) ;
#6 = PRODUCT_DEFINITION_SHAPE ( 'NONE', 'NONE',  #14 ) ;
#7 = SHAPE_DEFINITION_REPRESENTATION ( #6, #227 ) ;
#8 = DIRECTION ( 'NONE',  ( 0.0000000000000000000, 0.0000000000000000000, 1.000000000000000000 ) ) ;
#9 = CARTESIAN_POINT ( 'NONE',  ( 0.0000000000000000000, 0.0000000000000000000, 0.0000000000000000000 ) ) ;
#10 = AXIS2_PLACEMENT_3D ( 'NONE', #9, #8, #11 ) ;
#11 = DIRECTION ( 'NONE',  ( 1.000000000000000000, 0.0000000000000000000, 0.0000000000000000000 ) ) ;
#12 = APPLICATION_CONTEXT ( 'automotive_design' ) ;
#13 = PRODUCT_DEFINITION_FORMATION_WITH_SPECIFIED_SOURCE ( 'ANY', '', #18, .NOT_KNOWN. ) ;
#14 = PRODUCT_DEFINITION ( 'UNKNOWN', '', #13, #15 ) ;
#15 = PRODUCT_DEFINITION_CONTEXT ( 'detailed design', #17, 'design' ) ;
#16 = APPLICATION_PROTOCOL_DEFINITION ( 'draft international standard', 'automotive_design', 1998, #17 ) ;
#17 = APPLICATION_CONTEXT ( 'automotive_design' ) ;
#18 = PRODUCT ( '4792-E0W', '4792-E0W', '', ( #19 ) ) ;
#19 = PRODUCT_CONTEXT ( 'NONE', #12, 'mechanical' ) ;
#20 = APPLICATION_PROTOCOL_DEFINITION ( 'draft international standard', 'automotive_design', 1998, #12 ) ;
#21 = DIRECTION ( 'NONE',  ( 0.0000000000000000000, 1.000000000000000000, 0.0000000000000000000 ) ) ;
#22 = DIRECTION ( 'NONE',  ( -1.000000000000000000, 0.0000000000000000000, 0.0000000000000000000 ) ) ;
#23 = DIRECTION ( 'NONE',  ( -1.224606353822377000E-016, -1.000000000000000000, 0.0000000000000000000 ) ) ;
#24 = AXIS2_PLACEMENT_3D ( 'NONE', #26, #27, #23 ) ;
#25 = CIRCLE ( 'NONE', #24, 25.73000000000000400 ) ;
#26 = CARTESIAN_POINT ( 'NONE',  ( 0.0000000000000000000, 0.0000000000000000000, 25.80364267907416900 ) ) ;
#27 = DIRECTION ( 'NONE',  ( -1.000000000000000000, 1.224606353822377300E-016, 0.0000000000000000000 ) ) ;
#28 =( NAMED_UNIT ( * ) PLANE_ANGLE_UNIT ( ) SI_UNIT ( $, .RADIAN. ) );
#29 = CARTESIAN_POINT ( 'NONE',  ( 0.0000000000000000000, 1.575456074192488300E-015, 0.07364267907416718900 ) ) ;
#30 = DIRECTION ( 'NONE',  ( 0.0000000000000000000, 0.0000000000000000000, -1.000000000000000000 ) ) ;
#31 = DIRECTION ( 'NONE',  ( 1.000000000000000000, 0.0000000000000000000, 0.0000000000000000000 ) ) ;
#32 = CARTESIAN_POINT ( 'NONE',  ( 0.0000000000000000000, 0.0000000000000000000, 25.80364267907416900 ) ) ;
#33 = CIRCLE ( 'NONE', #35, 25.73000000000000400 ) ;
#34 =( NAMED_UNIT ( * ) SI_UNIT ( $, .STERADIAN. ) SOLID_ANGLE_UNIT ( ) );
#35 = AXIS2_PLACEMENT_3D ( 'NONE', #32, #31, #30 ) ;
#36 = CARTESIAN_POINT ( 'NONE',  ( -1.555250069354418900E-015, -12.69999999999999900, 3.426357320925826200 ) ) ;
#37 = CARTESIAN_POINT ( 'NONE',  ( -12.69999999999999900, 1.555250069354419100E-015, 3.426357320925830200 ) ) ;
#38 = DIRECTION ( 'NONE',  ( -0.0000000000000000000, -0.0000000000000000000, 1.000000000000000000 ) ) ;
#39 = VECTOR ( 'NONE', #38, 1000.000000000000000 ) ;
#40 = CARTESIAN_POINT ( 'NONE',  ( -12.69999999999999900, 1.555250069354419100E-015, 7.340795949503493600 ) ) ;
#41 = LINE ( 'NONE', #40, #39 ) ;
#42 =( LENGTH_UNIT ( ) NAMED_UNIT ( * ) SI_UNIT ( .MILLI., .METRE. ) );
#43 = MECHANICAL_DESIGN_GEOMETRIC_PRESENTATION_REPRESENTATION (  '', ( #45 ), #76 ) ;
#44 = PRESENTATION_LAYER_ASSIGNMENT (  '', '', ( #45 ) ) ;
#45 = STYLED_ITEM ( 'NONE', ( #46 ), #185 ) ;
#46 = PRESENTATION_STYLE_ASSIGNMENT (( #47 ) ) ;
#47 = SURFACE_STYLE_USAGE ( .BOTH. , #48 ) ;
#48 = SURFACE_SIDE_STYLE ('',( #49 ) ) ;
#49 = SURFACE_STYLE_FILL_AREA ( #50 ) ;
#50 = FILL_AREA_STYLE ('',( #51 ) ) ;
#51 = FILL_AREA_STYLE_COLOUR ( '', #58 ) ;
#52 = FACE_OUTER_BOUND ( 'NONE', #186, .T. ) ;
#53 = DIRECTION ( 'NONE',  ( 1.000000000000000000, 0.0000000000000000000, 0.0000000000000000000 ) ) ;
#54 = DIRECTION ( 'NONE',  ( -0.0000000000000000000, -0.0000000000000000000, 1.000000000000000000 ) ) ;
#55 = CARTESIAN_POINT ( 'NONE',  ( 0.0000000000000000000, 0.0000000000000000000, -3.426357320925830200 ) ) ;
#56 = AXIS2_PLACEMENT_3D ( 'NONE', #55, #54, #53 ) ;
#57 = CIRCLE ( 'NONE', #56, 12.69999999999999900 ) ;
#58 = COLOUR_RGB ( '',0.9568627450980391500, 0.9490196078431372100, 0.9607843137254902200 ) ;
#59 =( LENGTH_UNIT ( ) NAMED_UNIT ( * ) SI_UNIT ( .MILLI., .METRE. ) );
#60 = MECHANICAL_DESIGN_GEOMETRIC_PRESENTATION_REPRESENTATION (  '', ( #62 ), #107 ) ;
#61 = PRESENTATION_LAYER_ASSIGNMENT (  '', '', ( #62 ) ) ;
#62 = STYLED_ITEM ( 'NONE', ( #63 ), #201 ) ;
#63 = PRESENTATION_STYLE_ASSIGNMENT (( #64 ) ) ;
#64 = SURFACE_STYLE_USAGE ( .BOTH. , #65 ) ;
#65 = SURFACE_SIDE_STYLE ('',( #66 ) ) ;
#66 = SURFACE_STYLE_FILL_AREA ( #83 ) ;
#67 = COLOUR_RGB ( '',0.9568627450980391500, 0.9490196078431372100, 0.9607843137254902200 ) ;
#68 = CARTESIAN_POINT ( 'NONE',  ( 0.0000000000000000000, 0.0000000000000000000, 3.426357320925830200 ) ) ;
#69 = AXIS2_PLACEMENT_3D ( 'NONE', #68, #98, #97 ) ;
#70 = FACE_OUTER_BOUND ( 'NONE', #195, .T. ) ;
#71 = UNCERTAINTY_MEASURE_WITH_UNIT (LENGTH_MEASURE( 1.000000000000000100E-005 ), #42, 'distance_accuracy_value', 'NONE');
#72 =( GEOMETRIC_REPRESENTATION_CONTEXT ( 3 ) GLOBAL_UNCERTAINTY_ASSIGNED_CONTEXT ( ( #105 ) ) GLOBAL_UNIT_ASSIGNED_CONTEXT ( ( #99, #73, #106 ) ) REPRESENTATION_CONTEXT ( 'NONE', 'WORKASPACE' ) );
#73 =( NAMED_UNIT ( * ) PLANE_ANGLE_UNIT ( ) SI_UNIT ( $, .RADIAN. ) );
#74 = CARTESIAN_POINT ( 'NONE',  ( 0.0000000000000000000, 0.0000000000000000000, 7.340795949503493600 ) ) ;
#75 = CYLINDRICAL_SURFACE ( 'NONE', #112, 12.69999999999999900 ) ;
#76 =( GEOMETRIC_REPRESENTATION_CONTEXT ( 3 ) GLOBAL_UNCERTAINTY_ASSIGNED_CONTEXT ( ( #71 ) ) GLOBAL_UNIT_ASSIGNED_CONTEXT ( ( #42, #28, #34 ) ) REPRESENTATION_CONTEXT ( 'NONE', 'WORKASPACE' ) );
#77 = FILL_AREA_STYLE_COLOUR ( '', #67 ) ;
#78 = FACE_OUTER_BOUND ( 'NONE', #202, .T. ) ;
#79 = DIRECTION ( 'NONE',  ( 1.000000000000000000, 0.0000000000000000000, 0.0000000000000000000 ) ) ;
#80 = DIRECTION ( 'NONE',  ( -0.0000000000000000000, -0.0000000000000000000, 1.000000000000000000 ) ) ;
#81 = CARTESIAN_POINT ( 'NONE',  ( 0.0000000000000000000, 0.0000000000000000000, 3.426357320925830200 ) ) ;
#82 = AXIS2_PLACEMENT_3D ( 'NONE', #81, #80, #79 ) ;
#83 = FILL_AREA_STYLE ('',( #77 ) ) ;
#84 = DIRECTION ( 'NONE',  ( 0.0000000000000000000, 1.000000000000000000, 0.0000000000000000000 ) ) ;
#85 = DIRECTION ( 'NONE',  ( -1.000000000000000000, 0.0000000000000000000, 0.0000000000000000000 ) ) ;
#86 = CARTESIAN_POINT ( 'NONE',  ( 0.0000000000000000000, 0.0000000000000000000, 25.80364267907416900 ) ) ;
#87 = AXIS2_PLACEMENT_3D ( 'NONE', #86, #85, #84 ) ;
#88 = CIRCLE ( 'NONE', #82, 12.69999999999999900 ) ;
#89 = SPHERICAL_SURFACE ( 'NONE', #87, 25.73000000000000400 ) ;
#90 = CIRCLE ( 'NONE', #69, 12.69999999999999900 ) ;
#91 = DIRECTION ( 'NONE',  ( 1.000000000000000000, 0.0000000000000000000, 0.0000000000000000000 ) ) ;
#92 = SURFACE_SIDE_STYLE ('',( #93 ) ) ;
#93 = SURFACE_STYLE_FILL_AREA ( #94 ) ;
#94 = FILL_AREA_STYLE ('',( #95 ) ) ;
#95 = FILL_AREA_STYLE_COLOUR ( '', #96 ) ;
#96 = COLOUR_RGB ( '',0.9568627450980391500, 0.9490196078431372100, 0.9607843137254902200 ) ;
#97 = DIRECTION ( 'NONE',  ( 1.000000000000000000, 0.0000000000000000000, 0.0000000000000000000 ) ) ;
#98 = DIRECTION ( 'NONE',  ( -0.0000000000000000000, -0.0000000000000000000, 1.000000000000000000 ) ) ;
#99 =( LENGTH_UNIT ( ) NAMED_UNIT ( * ) SI_UNIT ( .MILLI., .METRE. ) );
#100 = MECHANICAL_DESIGN_GEOMETRIC_PRESENTATION_REPRESENTATION (  '', ( #102 ), #72 ) ;
#101 = PRESENTATION_LAYER_ASSIGNMENT (  '', '', ( #102 ) ) ;
#102 = STYLED_ITEM ( 'NONE', ( #103 ), #194 ) ;
#103 = PRESENTATION_STYLE_ASSIGNMENT (( #104 ) ) ;
#104 = SURFACE_STYLE_USAGE ( .BOTH. , #92 ) ;
#105 = UNCERTAINTY_MEASURE_WITH_UNIT (LENGTH_MEASURE( 1.000000000000000100E-005 ), #99, 'distance_accuracy_value', 'NONE');
#106 =( NAMED_UNIT ( * ) SI_UNIT ( $, .STERADIAN. ) SOLID_ANGLE_UNIT ( ) );
#107 =( GEOMETRIC_REPRESENTATION_CONTEXT ( 3 ) GLOBAL_UNCERTAINTY_ASSIGNED_CONTEXT ( ( #108 ) ) GLOBAL_UNIT_ASSIGNED_CONTEXT ( ( #59, #110, #109 ) ) REPRESENTATION_CONTEXT ( 'NONE', 'WORKASPACE' ) );
#108 = UNCERTAINTY_MEASURE_WITH_UNIT (LENGTH_MEASURE( 1.000000000000000100E-005 ), #59, 'distance_accuracy_value', 'NONE');
#109 =( NAMED_UNIT ( * ) SI_UNIT ( $, .STERADIAN. ) SOLID_ANGLE_UNIT ( ) );
#110 =( NAMED_UNIT ( * ) PLANE_ANGLE_UNIT ( ) SI_UNIT ( $, .RADIAN. ) );
#111 = DIRECTION ( 'NONE',  ( -0.0000000000000000000, -0.0000000000000000000, 1.000000000000000000 ) ) ;
#112 = AXIS2_PLACEMENT_3D ( 'NONE', #74, #111, #91 ) ;
#113 = CARTESIAN_POINT ( 'NONE',  ( 0.0000000000000000000, 0.0000000000000000000, 25.80364267907416900 ) ) ;
#114 = AXIS2_PLACEMENT_3D ( 'NONE', #113, #22, #21 ) ;
#115 = MECHANICAL_DESIGN_GEOMETRIC_PRESENTATION_REPRESENTATION (  '', ( #207 ), #3 ) ;
#116 = PRESENTATION_LAYER_ASSIGNMENT (  '', '', ( #207 ) ) ;
#117 = SPHERICAL_SURFACE ( 'NONE', #114, 25.73000000000000400 ) ;
#118 =( GEOMETRIC_REPRESENTATION_CONTEXT ( 3 ) GLOBAL_UNCERTAINTY_ASSIGNED_CONTEXT ( ( #119 ) ) GLOBAL_UNIT_ASSIGNED_CONTEXT ( ( #122, #121, #120 ) ) REPRESENTATION_CONTEXT ( 'NONE', 'WORKASPACE' ) );
#119 = UNCERTAINTY_MEASURE_WITH_UNIT (LENGTH_MEASURE( 1.000000000000000100E-005 ), #122, 'distance_accuracy_value', 'NONE');
#120 =( NAMED_UNIT ( * ) SI_UNIT ( $, .STERADIAN. ) SOLID_ANGLE_UNIT ( ) );
#121 =( NAMED_UNIT ( * ) PLANE_ANGLE_UNIT ( ) SI_UNIT ( $, .RADIAN. ) );
#122 =( LENGTH_UNIT ( ) NAMED_UNIT ( * ) SI_UNIT ( .MILLI., .METRE. ) );
#123 = MECHANICAL_DESIGN_GEOMETRIC_PRESENTATION_REPRESENTATION (  '', ( #125 ), #118 ) ;
#124 = PRESENTATION_LAYER_ASSIGNMENT (  '', '', ( #125 ) ) ;
#125 = STYLED_ITEM ( 'NONE', ( #126 ), #157 ) ;
#126 = PRESENTATION_STYLE_ASSIGNMENT (( #127 ) ) ;
#127 = SURFACE_STYLE_USAGE ( .BOTH. , #128 ) ;
#128 = SURFACE_SIDE_STYLE ('',( #129 ) ) ;
#129 = SURFACE_STYLE_FILL_AREA ( #130 ) ;
#130 = FILL_AREA_STYLE ('',( #137 ) ) ;
#131 = COLOUR_RGB ( '',0.9568627450980391500, 0.9490196078431372100, 0.9607843137254902200 ) ;
#132 = FACE_OUTER_BOUND ( 'NONE', #158, .T. ) ;
#133 = DIRECTION ( 'NONE',  ( -0.0000000000000000000, -0.0000000000000000000, 1.000000000000000000 ) ) ;
#134 = VECTOR ( 'NONE', #133, 1000.000000000000000 ) ;
#135 = CARTESIAN_POINT ( 'NONE',  ( 12.69999999999999900, 0.0000000000000000000, 7.340795949503493600 ) ) ;
#136 = LINE ( 'NONE', #135, #134 ) ;
#137 = FILL_AREA_STYLE_COLOUR ( '', #131 ) ;
#138 = CARTESIAN_POINT ( 'NONE',  ( 12.69999999999999900, 0.0000000000000000000, 3.426357320925830200 ) ) ;
#139 = DIRECTION ( 'NONE',  ( 1.000000000000000000, 0.0000000000000000000, 0.0000000000000000000 ) ) ;
#140 = DIRECTION ( 'NONE',  ( -0.0000000000000000000, -0.0000000000000000000, 1.000000000000000000 ) ) ;
#141 = CARTESIAN_POINT ( 'NONE',  ( 0.0000000000000000000, 0.0000000000000000000, 3.426357320925830200 ) ) ;
#142 = AXIS2_PLACEMENT_3D ( 'NONE', #141, #140, #139 ) ;
#143 = CIRCLE ( 'NONE', #142, 12.69999999999999900 ) ;
#144 = CARTESIAN_POINT ( 'NONE',  ( 0.0000000000000000000, 12.69999999999999900, 3.426357320925826200 ) ) ;
#145 = EDGE_LOOP ( 'NONE', ( #146, #165, #168, #152, #155 ) ) ;
#146 = ORIENTED_EDGE ( 'NONE', *, *, #147, .T. ) ;
#147 = EDGE_CURVE ( 'NONE', #148, #149, #181, .T. ) ;
#148 = VERTEX_POINT ( 'NONE', #176 ) ;
#149 = VERTEX_POINT ( 'NONE', #175 ) ;
#150 = EDGE_CURVE ( 'NONE', #151, #167, #174, .T. ) ;
#151 = VERTEX_POINT ( 'NONE', #144 ) ;
#152 = ORIENTED_EDGE ( 'NONE', *, *, #153, .F. ) ;
#153 = EDGE_CURVE ( 'NONE', #154, #151, #143, .T. ) ;
#154 = VERTEX_POINT ( 'NONE', #138 ) ;
#155 = ORIENTED_EDGE ( 'NONE', *, *, #156, .F. ) ;
#156 = EDGE_CURVE ( 'NONE', #148, #154, #136, .T. ) ;
#157 = ADVANCED_FACE ( 'NONE', ( #132 ), #117, .F. ) ;
#158 = EDGE_LOOP ( 'NONE', ( #159, #162, #191, #193 ) ) ;
#159 = ORIENTED_EDGE ( 'NONE', *, *, #160, .F. ) ;
#160 = EDGE_CURVE ( 'NONE', #161, #151, #33, .T. ) ;
#161 = VERTEX_POINT ( 'NONE', #29 ) ;
#162 = ORIENTED_EDGE ( 'NONE', *, *, #163, .T. ) ;
#163 = EDGE_CURVE ( 'NONE', #161, #164, #25, .T. ) ;
#164 = VERTEX_POINT ( 'NONE', #36 ) ;
#165 = ORIENTED_EDGE ( 'NONE', *, *, #166, .T. ) ;
#166 = EDGE_CURVE ( 'NONE', #149, #167, #41, .T. ) ;
#167 = VERTEX_POINT ( 'NONE', #37 ) ;
#168 = ORIENTED_EDGE ( 'NONE', *, *, #150, .F. ) ;
#169 =( LENGTH_UNIT ( ) NAMED_UNIT ( * ) SI_UNIT ( .MILLI., .METRE. ) );
#170 = DIRECTION ( 'NONE',  ( 1.000000000000000000, 0.0000000000000000000, 0.0000000000000000000 ) ) ;
#171 = DIRECTION ( 'NONE',  ( -0.0000000000000000000, -0.0000000000000000000, 1.000000000000000000 ) ) ;
#172 = CARTESIAN_POINT ( 'NONE',  ( 0.0000000000000000000, 0.0000000000000000000, 3.426357320925830200 ) ) ;
#173 = AXIS2_PLACEMENT_3D ( 'NONE', #172, #171, #170 ) ;
#174 = CIRCLE ( 'NONE', #173, 12.69999999999999900 ) ;
#175 = CARTESIAN_POINT ( 'NONE',  ( -12.69999999999999900, 1.555250069354419100E-015, -3.426357320925830200 ) ) ;
#176 = CARTESIAN_POINT ( 'NONE',  ( 12.69999999999999900, 0.0000000000000000000, -3.426357320925830200 ) ) ;
#177 = DIRECTION ( 'NONE',  ( 1.000000000000000000, 0.0000000000000000000, 0.0000000000000000000 ) ) ;
#178 = DIRECTION ( 'NONE',  ( -0.0000000000000000000, -0.0000000000000000000, 1.000000000000000000 ) ) ;
#179 = CARTESIAN_POINT ( 'NONE',  ( 0.0000000000000000000, 0.0000000000000000000, -3.426357320925830200 ) ) ;
#180 = AXIS2_PLACEMENT_3D ( 'NONE', #179, #178, #177 ) ;
#181 = CIRCLE ( 'NONE', #180, 12.69999999999999900 ) ;
#182 = ORIENTED_EDGE ( 'NONE', *, *, #147, .F. ) ;
#183 = ORIENTED_EDGE ( 'NONE', *, *, #184, .F. ) ;
#184 = EDGE_CURVE ( 'NONE', #149, #148, #57, .T. ) ;
#185 = ADVANCED_FACE ( 'NONE', ( #52 ), #75, .T. ) ;
#186 = EDGE_LOOP ( 'NONE', ( #187, #188, #189, #190, #203 ) ) ;
#187 = ORIENTED_EDGE ( 'NONE', *, *, #166, .F. ) ;
#188 = ORIENTED_EDGE ( 'NONE', *, *, #184, .T. ) ;
#189 = ORIENTED_EDGE ( 'NONE', *, *, #156, .T. ) ;
#190 = ORIENTED_EDGE ( 'NONE', *, *, #192, .F. ) ;
#191 = ORIENTED_EDGE ( 'NONE', *, *, #192, .T. ) ;
#192 = EDGE_CURVE ( 'NONE', #164, #154, #90, .T. ) ;
#193 = ORIENTED_EDGE ( 'NONE', *, *, #153, .T. ) ;
#194 = ADVANCED_FACE ( 'NONE', ( #70 ), #89, .F. ) ;
#195 = EDGE_LOOP ( 'NONE', ( #196, #197, #198, #199 ) ) ;
#196 = ORIENTED_EDGE ( 'NONE', *, *, #163, .F. ) ;
#197 = ORIENTED_EDGE ( 'NONE', *, *, #160, .T. ) ;
#198 = ORIENTED_EDGE ( 'NONE', *, *, #150, .T. ) ;
#199 = ORIENTED_EDGE ( 'NONE', *, *, #200, .T. ) ;
#200 = EDGE_CURVE ( 'NONE', #167, #164, #88, .T. ) ;
#201 = ADVANCED_FACE ( 'NONE', ( #78 ), #254, .F. ) ;
#202 = EDGE_LOOP ( 'NONE', ( #182, #183 ) ) ;
#203 = ORIENTED_EDGE ( 'NONE', *, *, #200, .F. ) ;
#204 = CLOSED_SHELL ( 'NONE', ( #206, #157, #194, #201, #185 ) ) ;
#205 = MANIFOLD_SOLID_BREP ( 'NONE', #204 ) ;
#206 = ADVANCED_FACE ( 'NONE', ( #253 ), #257, .T. ) ;
#207 = STYLED_ITEM ( 'NONE', ( #208 ), #227 ) ;
#208 = PRESENTATION_STYLE_ASSIGNMENT (( #209 ) ) ;
#209 = SURFACE_STYLE_USAGE ( .BOTH. , #210 ) ;
#210 = SURFACE_SIDE_STYLE ('',( #211 ) ) ;
#211 = SURFACE_STYLE_FILL_AREA ( #212 ) ;
#212 = FILL_AREA_STYLE ('',( #213 ) ) ;
#213 = FILL_AREA_STYLE_COLOUR ( '', #214 ) ;
#214 = COLOUR_RGB ( '',0.7960784313725489700, 0.8235294117647058400, 0.9372549019607843100 ) ;
#215 =( NAMED_UNIT ( * ) PLANE_ANGLE_UNIT ( ) SI_UNIT ( $, .RADIAN. ) );
#216 = UNCERTAINTY_MEASURE_WITH_UNIT (LENGTH_MEASURE( 1.000000000000000100E-005 ), #258, 'distance_accuracy_value', 'NONE');
#217 = UNCERTAINTY_MEASURE_WITH_UNIT (LENGTH_MEASURE( 1.000000000000000100E-005 ), #255, 'distance_accuracy_value', 'NONE');
#218 =( NAMED_UNIT ( * ) SI_UNIT ( $, .STERADIAN. ) SOLID_ANGLE_UNIT ( ) );
#219 = DIRECTION ( 'NONE',  ( 0.0000000000000000000, -0.0000000000000000000, 1.000000000000000000 ) ) ;
#220 = DIRECTION ( 'NONE',  ( 1.000000000000000000, 0.0000000000000000000, 0.0000000000000000000 ) ) ;
#221 = CARTESIAN_POINT ( 'NONE',  ( 0.0000000000000000000, 0.0000000000000000000, 7.340795949503493600 ) ) ;
#222 = AXIS2_PLACEMENT_3D ( 'NONE', #221, #252, #251 ) ;
#223 = UNCERTAINTY_MEASURE_WITH_UNIT (LENGTH_MEASURE( 1.000000000000000100E-005 ), #231, 'distance_accuracy_value', 'NONE');
#224 =( GEOMETRIC_REPRESENTATION_CONTEXT ( 3 ) GLOBAL_UNCERTAINTY_ASSIGNED_CONTEXT ( ( #216 ) ) GLOBAL_UNIT_ASSIGNED_CONTEXT ( ( #258, #215, #236 ) ) REPRESENTATION_CONTEXT ( 'NONE', 'WORKASPACE' ) );
#225 = COLOUR_RGB ( '',0.9568627450980391500, 0.9490196078431372100, 0.9607843137254902200 ) ;
#226 =( NAMED_UNIT ( * ) SI_UNIT ( $, .STERADIAN. ) SOLID_ANGLE_UNIT ( ) );
#227 = ADVANCED_BREP_SHAPE_REPRESENTATION ( '4792-E0W', ( #205, #10 ), #228 ) ;
#228 =( GEOMETRIC_REPRESENTATION_CONTEXT ( 3 ) GLOBAL_UNCERTAINTY_ASSIGNED_CONTEXT ( ( #217 ) ) GLOBAL_UNIT_ASSIGNED_CONTEXT ( ( #255, #259, #218 ) ) REPRESENTATION_CONTEXT ( 'NONE', 'WORKASPACE' ) );
#229 = FILL_AREA_STYLE ('',( #230 ) ) ;
#230 = FILL_AREA_STYLE_COLOUR ( '', #225 ) ;
#231 =( LENGTH_UNIT ( ) NAMED_UNIT ( * ) SI_UNIT ( .MILLI., .METRE. ) );
#232 = SURFACE_SIDE_STYLE ('',( #233 ) ) ;
#233 = SURFACE_STYLE_FILL_AREA ( #229 ) ;
#234 = PRESENTATION_STYLE_ASSIGNMENT (( #235 ) ) ;
#235 = SURFACE_STYLE_USAGE ( .BOTH. , #232 ) ;
#236 =( NAMED_UNIT ( * ) SI_UNIT ( $, .STERADIAN. ) SOLID_ANGLE_UNIT ( ) );
#237 = STYLED_ITEM ( 'NONE', ( #234 ), #206 ) ;
#238 =( GEOMETRIC_REPRESENTATION_CONTEXT ( 3 ) GLOBAL_UNCERTAINTY_ASSIGNED_CONTEXT ( ( #223 ) ) GLOBAL_UNIT_ASSIGNED_CONTEXT ( ( #231, #243, #226 ) ) REPRESENTATION_CONTEXT ( 'NONE', 'WORKASPACE' ) );
#239 = COLOUR_RGB ( '',0.7960784313725489700, 0.8235294117647058400, 0.9372549019607843100 ) ;
#240 = FILL_AREA_STYLE ('',( #242 ) ) ;
#241 = SURFACE_STYLE_FILL_AREA ( #240 ) ;
#242 = FILL_AREA_STYLE_COLOUR ( '', #239 ) ;
#243 =( NAMED_UNIT ( * ) PLANE_ANGLE_UNIT ( ) SI_UNIT ( $, .RADIAN. ) );
#244 = SURFACE_SIDE_STYLE ('',( #241 ) ) ;
#245 = SURFACE_STYLE_USAGE ( .BOTH. , #244 ) ;
#246 = PRESENTATION_STYLE_ASSIGNMENT (( #245 ) ) ;
#247 = STYLED_ITEM ( 'NONE', ( #246 ), #205 ) ;
#248 = AXIS2_PLACEMENT_3D ( 'NONE', #256, #219, #220 ) ;
#249 = MECHANICAL_DESIGN_GEOMETRIC_PRESENTATION_REPRESENTATION (  '', ( #247 ), #238 ) ;
#250 = PRESENTATION_LAYER_ASSIGNMENT (  '', '', ( #247 ) ) ;
#251 = DIRECTION ( 'NONE',  ( 1.000000000000000000, 0.0000000000000000000, 0.0000000000000000000 ) ) ;
#252 = DIRECTION ( 'NONE',  ( -0.0000000000000000000, -0.0000000000000000000, 1.000000000000000000 ) ) ;
#253 = FACE_OUTER_BOUND ( 'NONE', #145, .T. ) ;
#254 = PLANE ( 'NONE',  #248 ) ;
#255 =( LENGTH_UNIT ( ) NAMED_UNIT ( * ) SI_UNIT ( .MILLI., .METRE. ) );
#256 = CARTESIAN_POINT ( 'NONE',  ( 0.0000000000000000000, 6.429395695523603200E-016, -3.426357320925830700 ) ) ;
#257 = CYLINDRICAL_SURFACE ( 'NONE', #222, 12.69999999999999900 ) ;
#258 =( LENGTH_UNIT ( ) NAMED_UNIT ( * ) SI_UNIT ( .MILLI., .METRE. ) );
#259 =( NAMED_UNIT ( * ) PLANE_ANGLE_UNIT ( ) SI_UNIT ( $, .RADIAN. ) );
#260 = PRESENTATION_LAYER_ASSIGNMENT (  '', '', ( #237 ) ) ;
#261 = MECHANICAL_DESIGN_GEOMETRIC_PRESENTATION_REPRESENTATION (  '', ( #237 ), #224 ) ;
ENDSEC;
END-ISO-10303-21;
