ISO-10303-21;
HEADER;
FILE_DESCRIPTION (( 'STEP AP203' ),
    '1' );
FILE_NAME ('Web Model 15404_15413.step',
    '2022-03-11T18:21:45',
    ( '' ),
    ( '' ),
    'SwSTEP 2.0',
    'SolidWorks 2021',
    '' );
FILE_SCHEMA (( 'CONFIG_CONTROL_DESIGN' ));
ENDSEC;

DATA;
#1 = MECHANICAL_CONTEXT ( 'NONE', #67, 'mechanical' ) ;
#2 = EDGE_CURVE ( 'NONE', #88, #20, #162, .T. ) ;
#3 = APPROVAL_PERSON_ORGANIZATION ( #100, #17, #84 ) ;
#4 = COORDINATED_UNIVERSAL_TIME_OFFSET ( 5, 0, .BEHIND. ) ;
#5 = PERSON_AND_ORGANIZATION ( #80, #27 ) ;
#6 = CALENDAR_DATE ( 2022, 11, 3 ) ;
#7 = AXIS2_PLACEMENT_3D ( 'NONE', #108, #161, #159 ) ;
#8 = COORDINATED_UNIVERSAL_TIME_OFFSET ( 5, 0, .BEHIND. ) ;
#9 = LINE ( 'NONE', #36, #85 ) ;
#10 = EDGE_CURVE ( 'NONE', #20, #78, #9, .T. ) ;
#11 = ORIENTED_EDGE ( 'NONE', *, *, #140, .F. ) ;
#12 = PRODUCT_DEFINITION_SHAPE ( 'NONE', 'NONE',  #96 ) ;
#13 = DIRECTION ( 'NONE',  ( 0.000000000000000000, 0.000000000000000000, 1.000000000000000000 ) ) ;
#14 = FACE_OUTER_BOUND ( 'NONE', #131, .T. ) ;
#15 = DATE_AND_TIME ( #29, #119 ) ;
#16 = PERSON_AND_ORGANIZATION ( #80, #27 ) ;
#17 = APPROVAL ( #31, 'UNSPECIFIED' ) ;
#18 = APPROVAL_ROLE ( '' ) ;
#19 = VERTEX_POINT ( 'NONE', #50 ) ;
#20 = VERTEX_POINT ( 'NONE', #157 ) ;
#21 = DATE_TIME_ROLE ( 'classification_date' ) ;
#22 = APPROVAL_STATUS ( 'not_yet_approved' ) ;
#23 = ORIENTED_EDGE ( 'NONE', *, *, #140, .T. ) ;
#24 = APPROVAL_PERSON_ORGANIZATION ( #169, #114, #63 ) ;
#25 = DIRECTION ( 'NONE',  ( 0.000000000000000000, 0.000000000000000000, -1.000000000000000000 ) ) ;
#26 =( NAMED_UNIT ( * ) PLANE_ANGLE_UNIT ( ) SI_UNIT ( $, .RADIAN. ) );
#27 = ORGANIZATION ( 'UNSPECIFIED', 'UNSPECIFIED', '' ) ;
#28 = AXIS2_PLACEMENT_3D ( 'NONE', #116, #141, #126 ) ;
#29 = CALENDAR_DATE ( 2022, 11, 3 ) ;
#30 = CALENDAR_DATE ( 2022, 11, 3 ) ;
#31 = APPROVAL_STATUS ( 'not_yet_approved' ) ;
#32 = EDGE_CURVE ( 'NONE', #20, #88, #128, .T. ) ;
#33 = ORIENTED_EDGE ( 'NONE', *, *, #10, .T. ) ;
#34 = ADVANCED_FACE ( 'NONE', ( #163 ), #65, .T. ) ;
#35 = DIRECTION ( 'NONE',  ( 1.000000000000000000, 0.000000000000000000, 0.000000000000000000 ) ) ;
#36 = CARTESIAN_POINT ( 'NONE',  ( 2.500000000000000000, 3.110602869834276865E-15, -25.39999999999999858 ) ) ;
#37 = CC_DESIGN_DATE_AND_TIME_ASSIGNMENT ( #111, #70, ( #96 ) ) ;
#38 = UNCERTAINTY_MEASURE_WITH_UNIT (LENGTH_MEASURE( 1.000000000000000082E-05 ), #48, 'distance_accuracy_value', 'NONE');
#39 = FACE_OUTER_BOUND ( 'NONE', #87, .T. ) ;
#40 = ADVANCED_FACE ( 'NONE', ( #81 ), #147, .T. ) ;
#41 = DIRECTION ( 'NONE',  ( 0.000000000000000000, 0.000000000000000000, -1.000000000000000000 ) ) ;
#42 = AXIS2_PLACEMENT_3D ( 'NONE', #152, #153, #72 ) ;
#43 = ADVANCED_BREP_SHAPE_REPRESENTATION ( 'Web Model 15404_15413', ( #151, #42 ), #106 ) ;
#44 = PERSON_AND_ORGANIZATION ( #80, #27 ) ;
#45 = COORDINATED_UNIVERSAL_TIME_OFFSET ( 5, 0, .BEHIND. ) ;
#46 = DESIGN_CONTEXT ( 'detailed design', #123, 'design' ) ;
#47 = PERSON_AND_ORGANIZATION ( #80, #27 ) ;
#48 =( LENGTH_UNIT ( ) NAMED_UNIT ( * ) SI_UNIT ( .MILLI., .METRE. ) );
#49 = CIRCLE ( 'NONE', #145, 25.39999999999999858 ) ;
#50 = CARTESIAN_POINT ( 'NONE',  ( -2.500000000000000000, 0.000000000000000000, 25.39999999999999858 ) ) ;
#51 = CALENDAR_DATE ( 2022, 11, 3 ) ;
#52 = ORIENTED_EDGE ( 'NONE', *, *, #2, .F. ) ;
#53 = CC_DESIGN_PERSON_AND_ORGANIZATION_ASSIGNMENT ( #164, #137, ( #144 ) ) ;
#54 = ORIENTED_EDGE ( 'NONE', *, *, #138, .F. ) ;
#55 = AXIS2_PLACEMENT_3D ( 'NONE', #89, #35, #25 ) ;
#56 = DIRECTION ( 'NONE',  ( 0.000000000000000000, 0.000000000000000000, 1.000000000000000000 ) ) ;
#57 = PERSON_AND_ORGANIZATION ( #80, #27 ) ;
#58 = LOCAL_TIME ( 13, 21, 45.00000000000000000, #150 ) ;
#59 = PERSON_AND_ORGANIZATION_ROLE ( 'design_supplier' ) ;
#60 = APPLICATION_PROTOCOL_DEFINITION ( 'international standard', 'config_control_design', 1994, #123 ) ;
#61 = DATE_AND_TIME ( #6, #58 ) ;
#62 = CLOSED_SHELL ( 'NONE', ( #34, #40, #148, #121 ) ) ;
#63 = APPROVAL_ROLE ( '' ) ;
#64 = ORIENTED_EDGE ( 'NONE', *, *, #32, .F. ) ;
#65 = CYLINDRICAL_SURFACE ( 'NONE', #103, 25.39999999999999858 ) ;
#66 = EDGE_CURVE ( 'NONE', #78, #19, #77, .T. ) ;
#67 = APPLICATION_CONTEXT ( 'configuration controlled 3d designs of mechanical parts and assemblies' ) ;
#68 = APPROVAL ( #135, 'UNSPECIFIED' ) ;
#69 =( NAMED_UNIT ( * ) SI_UNIT ( $, .STERADIAN. ) SOLID_ANGLE_UNIT ( ) );
#70 = DATE_TIME_ROLE ( 'creation_date' ) ;
#71 = CC_DESIGN_DATE_AND_TIME_ASSIGNMENT ( #127, #21, ( #104 ) ) ;
#72 = DIRECTION ( 'NONE',  ( 1.000000000000000000, 0.000000000000000000, 0.000000000000000000 ) ) ;
#73 = DATE_AND_TIME ( #51, #94 ) ;
#74 = ORIENTED_EDGE ( 'NONE', *, *, #66, .T. ) ;
#75 = ORIENTED_EDGE ( 'NONE', *, *, #2, .T. ) ;
#76 = LOCAL_TIME ( 13, 21, 45.00000000000000000, #156 ) ;
#77 = CIRCLE ( 'NONE', #7, 25.39999999999999858 ) ;
#78 = VERTEX_POINT ( 'NONE', #132 ) ;
#79 = DIRECTION ( 'NONE',  ( -1.000000000000000000, -0.000000000000000000, -0.000000000000000000 ) ) ;
#80 = PERSON ( 'UNSPECIFIED', 'UNSPECIFIED', 'UNSPECIFIED', ('UNSPECIFIED'), ('UNSPECIFIED'), ('UNSPECIFIED') ) ;
#81 = FACE_OUTER_BOUND ( 'NONE', #155, .T. ) ;
#82 = CC_DESIGN_APPROVAL ( #68, ( #96 ) ) ;
#83 = PLANE ( 'NONE',  #167 ) ;
#84 = APPROVAL_ROLE ( '' ) ;
#85 = VECTOR ( 'NONE', #170, 1000.000000000000000 ) ;
#86 = APPLICATION_PROTOCOL_DEFINITION ( 'international standard', 'config_control_design', 1994, #67 ) ;
#87 = EDGE_LOOP ( 'NONE', ( #11, #171 ) ) ;
#88 = VERTEX_POINT ( 'NONE', #95 ) ;
#89 = CARTESIAN_POINT ( 'NONE',  ( 2.500000000000000000, 0.000000000000000000, 0.000000000000000000 ) ) ;
#90 = CARTESIAN_POINT ( 'NONE',  ( 2.500000000000000000, 0.000000000000000000, 0.000000000000000000 ) ) ;
#91 = PRODUCT ( 'Web Model 15404_15413', 'Web Model 15404_15413', '', ( #1 ) ) ;
#92 = PLANE ( 'NONE',  #175 ) ;
#93 = LINE ( 'NONE', #149, #120 ) ;
#94 = LOCAL_TIME ( 13, 21, 45.00000000000000000, #8 ) ;
#95 = CARTESIAN_POINT ( 'NONE',  ( 2.500000000000000000, 0.000000000000000000, 25.39999999999999858 ) ) ;
#96 = PRODUCT_DEFINITION ( 'UNKNOWN', '', #144, #46 ) ;
#97 = PERSON_AND_ORGANIZATION_ROLE ( 'creator' ) ;
#98 = PRODUCT_RELATED_PRODUCT_CATEGORY ( 'detail', '', ( #91 ) ) ;
#99 = DIRECTION ( 'NONE',  ( 0.000000000000000000, 0.000000000000000000, -1.000000000000000000 ) ) ;
#100 = PERSON_AND_ORGANIZATION ( #80, #27 ) ;
#101 = PERSON_AND_ORGANIZATION_ROLE ( 'classification_officer' ) ;
#102 = DIRECTION ( 'NONE',  ( 0.000000000000000000, 0.000000000000000000, -1.000000000000000000 ) ) ;
#103 = AXIS2_PLACEMENT_3D ( 'NONE', #90, #146, #13 ) ;
#104 = SECURITY_CLASSIFICATION ( '', '', #165 ) ;
#105 = ORIENTED_EDGE ( 'NONE', *, *, #32, .T. ) ;
#106 =( GEOMETRIC_REPRESENTATION_CONTEXT ( 3 ) GLOBAL_UNCERTAINTY_ASSIGNED_CONTEXT ( ( #38 ) ) GLOBAL_UNIT_ASSIGNED_CONTEXT ( ( #48, #26, #69 ) ) REPRESENTATION_CONTEXT ( 'NONE', 'WORKASPACE' ) );
#107 = EDGE_LOOP ( 'NONE', ( #64, #33, #74, #54 ) ) ;
#108 = CARTESIAN_POINT ( 'NONE',  ( -2.500000000000000000, 0.000000000000000000, 0.000000000000000000 ) ) ;
#109 = CC_DESIGN_PERSON_AND_ORGANIZATION_ASSIGNMENT ( #44, #97, ( #96 ) ) ;
#110 = APPROVAL_PERSON_ORGANIZATION ( #57, #68, #18 ) ;
#111 = DATE_AND_TIME ( #30, #124 ) ;
#112 = CARTESIAN_POINT ( 'NONE',  ( -2.500000000000000000, 0.000000000000000000, 0.000000000000000000 ) ) ;
#113 = CARTESIAN_POINT ( 'NONE',  ( 2.500000000000000000, 0.000000000000000000, 0.000000000000000000 ) ) ;
#114 = APPROVAL ( #22, 'UNSPECIFIED' ) ;
#115 = APPROVAL_DATE_TIME ( #61, #68 ) ;
#116 = CARTESIAN_POINT ( 'NONE',  ( 2.500000000000000000, 0.000000000000000000, 0.000000000000000000 ) ) ;
#117 = CARTESIAN_POINT ( 'NONE',  ( -2.500000000000000000, 0.000000000000000000, 0.000000000000000000 ) ) ;
#118 = CARTESIAN_POINT ( 'NONE',  ( 2.500000000000000000, 0.000000000000000000, 0.000000000000000000 ) ) ;
#119 = LOCAL_TIME ( 13, 21, 45.00000000000000000, #45 ) ;
#120 = VECTOR ( 'NONE', #172, 1000.000000000000000 ) ;
#121 = ADVANCED_FACE ( 'NONE', ( #39 ), #92, .F. ) ;
#122 = APPROVAL_DATE_TIME ( #15, #17 ) ;
#123 = APPLICATION_CONTEXT ( 'configuration controlled 3d designs of mechanical parts and assemblies' ) ;
#124 = LOCAL_TIME ( 13, 21, 45.00000000000000000, #4 ) ;
#125 = CC_DESIGN_PERSON_AND_ORGANIZATION_ASSIGNMENT ( #5, #139, ( #91 ) ) ;
#126 = DIRECTION ( 'NONE',  ( 0.000000000000000000, 0.000000000000000000, -1.000000000000000000 ) ) ;
#127 = DATE_AND_TIME ( #130, #76 ) ;
#128 = CIRCLE ( 'NONE', #55, 25.39999999999999858 ) ;
#129 = CC_DESIGN_PERSON_AND_ORGANIZATION_ASSIGNMENT ( #16, #59, ( #144 ) ) ;
#130 = CALENDAR_DATE ( 2022, 11, 3 ) ;
#131 = EDGE_LOOP ( 'NONE', ( #75, #105 ) ) ;
#132 = CARTESIAN_POINT ( 'NONE',  ( -2.500000000000000000, 3.110602869834276865E-15, -25.39999999999999858 ) ) ;
#133 = CC_DESIGN_SECURITY_CLASSIFICATION ( #104, ( #144 ) ) ;
#134 = AXIS2_PLACEMENT_3D ( 'NONE', #118, #79, #56 ) ;
#135 = APPROVAL_STATUS ( 'not_yet_approved' ) ;
#136 = DIRECTION ( 'NONE',  ( 1.000000000000000000, 0.000000000000000000, 0.000000000000000000 ) ) ;
#137 = PERSON_AND_ORGANIZATION_ROLE ( 'creator' ) ;
#138 = EDGE_CURVE ( 'NONE', #88, #19, #93, .T. ) ;
#139 = PERSON_AND_ORGANIZATION_ROLE ( 'design_owner' ) ;
#140 = EDGE_CURVE ( 'NONE', #19, #78, #49, .T. ) ;
#141 = DIRECTION ( 'NONE',  ( 1.000000000000000000, 0.000000000000000000, 0.000000000000000000 ) ) ;
#142 = SHAPE_DEFINITION_REPRESENTATION ( #12, #43 ) ;
#143 = ORIENTED_EDGE ( 'NONE', *, *, #138, .T. ) ;
#144 = PRODUCT_DEFINITION_FORMATION_WITH_SPECIFIED_SOURCE ( 'ANY', '', #91, .NOT_KNOWN. ) ;
#145 = AXIS2_PLACEMENT_3D ( 'NONE', #112, #136, #102 ) ;
#146 = DIRECTION ( 'NONE',  ( -1.000000000000000000, -0.000000000000000000, -0.000000000000000000 ) ) ;
#147 = CYLINDRICAL_SURFACE ( 'NONE', #134, 25.39999999999999858 ) ;
#148 = ADVANCED_FACE ( 'NONE', ( #14 ), #83, .T. ) ;
#149 = CARTESIAN_POINT ( 'NONE',  ( 2.500000000000000000, 0.000000000000000000, 25.39999999999999858 ) ) ;
#150 = COORDINATED_UNIVERSAL_TIME_OFFSET ( 5, 0, .BEHIND. ) ;
#151 = MANIFOLD_SOLID_BREP ( 'Boss-Extrude1', #62 ) ;
#152 = CARTESIAN_POINT ( 'NONE',  ( 0.000000000000000000, 0.000000000000000000, 0.000000000000000000 ) ) ;
#153 = DIRECTION ( 'NONE',  ( 0.000000000000000000, 0.000000000000000000, 1.000000000000000000 ) ) ;
#154 = CC_DESIGN_APPROVAL ( #17, ( #144 ) ) ;
#155 = EDGE_LOOP ( 'NONE', ( #158, #52, #143, #23 ) ) ;
#156 = COORDINATED_UNIVERSAL_TIME_OFFSET ( 5, 0, .BEHIND. ) ;
#157 = CARTESIAN_POINT ( 'NONE',  ( 2.500000000000000000, 3.110602869834276865E-15, -25.39999999999999858 ) ) ;
#158 = ORIENTED_EDGE ( 'NONE', *, *, #10, .F. ) ;
#159 = DIRECTION ( 'NONE',  ( 0.000000000000000000, 0.000000000000000000, -1.000000000000000000 ) ) ;
#160 = DIRECTION ( 'NONE',  ( 1.000000000000000000, 0.000000000000000000, 0.000000000000000000 ) ) ;
#161 = DIRECTION ( 'NONE',  ( 1.000000000000000000, 0.000000000000000000, 0.000000000000000000 ) ) ;
#162 = CIRCLE ( 'NONE', #28, 25.39999999999999858 ) ;
#163 = FACE_OUTER_BOUND ( 'NONE', #107, .T. ) ;
#164 = PERSON_AND_ORGANIZATION ( #80, #27 ) ;
#165 = SECURITY_CLASSIFICATION_LEVEL ( 'unclassified' ) ;
#166 = DIRECTION ( 'NONE',  ( 1.000000000000000000, 0.000000000000000000, 0.000000000000000000 ) ) ;
#167 = AXIS2_PLACEMENT_3D ( 'NONE', #113, #166, #99 ) ;
#168 = APPROVAL_DATE_TIME ( #73, #114 ) ;
#169 = PERSON_AND_ORGANIZATION ( #80, #27 ) ;
#170 = DIRECTION ( 'NONE',  ( -1.000000000000000000, -0.000000000000000000, -0.000000000000000000 ) ) ;
#171 = ORIENTED_EDGE ( 'NONE', *, *, #66, .F. ) ;
#172 = DIRECTION ( 'NONE',  ( -1.000000000000000000, -0.000000000000000000, -0.000000000000000000 ) ) ;
#173 = CC_DESIGN_PERSON_AND_ORGANIZATION_ASSIGNMENT ( #47, #101, ( #104 ) ) ;
#174 = CC_DESIGN_APPROVAL ( #114, ( #104 ) ) ;
#175 = AXIS2_PLACEMENT_3D ( 'NONE', #117, #160, #41 ) ;
ENDSEC;
END-ISO-10303-21;
