ISO-10303-21;
HEADER;
FILE_DESCRIPTION (( 'STEP AP203' ),
    '1' );
FILE_NAME ('Web Model 15467_15467.step',
    '2020-08-11T20:41:14',
    ( '' ),
    ( '' ),
    'SwSTEP 2.0',
    'SolidWorks 2018',
    '' );
FILE_SCHEMA (( 'CONFIG_CONTROL_DESIGN' ));
ENDSEC;

DATA;
#1 = ORIENTED_EDGE ( 'NONE', *, *, #34, .F. ) ;
#2 =( GEOMETRIC_REPRESENTATION_CONTEXT ( 3 ) GLOBAL_UNCERTAINTY_ASSIGNED_CONTEXT ( ( #12 ) ) GLOBAL_UNIT_ASSIGNED_CONTEXT ( ( #130, #25, #77 ) ) REPRESENTATION_CONTEXT ( 'NONE', 'WORKASPACE' ) );
#3 = CARTESIAN_POINT ( 'NONE',  ( 0.0000000000000000000, 0.0000000000000000000, 0.5000000000000000000 ) ) ;
#4 = PRODUCT_DEFINITION ( 'UNKNOWN', '', #105, #151 ) ;
#5 = LOCAL_TIME ( 16, 41, 14.00000000000000000, #69 ) ;
#6 = FACE_OUTER_BOUND ( 'NONE', #108, .T. ) ;
#7 = APPROVAL_ROLE ( '' ) ;
#8 = APPLICATION_CONTEXT ( 'configuration controlled 3d designs of mechanical parts and assemblies' ) ;
#9 = DIRECTION ( 'NONE',  ( -0.0000000000000000000, -0.0000000000000000000, -1.000000000000000000 ) ) ;
#10 = PERSON_AND_ORGANIZATION_ROLE ( 'creator' ) ;
#11 = EDGE_CURVE ( 'NONE', #126, #146, #106, .T. ) ;
#12 = UNCERTAINTY_MEASURE_WITH_UNIT (LENGTH_MEASURE( 1.000000000000000082E-05 ), #130, 'distance_accuracy_value', 'NONE');
#13 = ORIENTED_EDGE ( 'NONE', *, *, #31, .T. ) ;
#14 = PERSON_AND_ORGANIZATION ( #78, #166 ) ;
#15 = CALENDAR_DATE ( 2020, 11, 8 ) ;
#16 = CARTESIAN_POINT ( 'NONE',  ( 0.0000000000000000000, 0.0000000000000000000, 0.5000000000000000000 ) ) ;
#17 = LOCAL_TIME ( 16, 41, 14.00000000000000000, #121 ) ;
#18 = DIRECTION ( 'NONE',  ( -0.0000000000000000000, -0.0000000000000000000, -1.000000000000000000 ) ) ;
#19 = CARTESIAN_POINT ( 'NONE',  ( 0.0000000000000000000, 0.0000000000000000000, 0.5000000000000000000 ) ) ;
#20 = DIRECTION ( 'NONE',  ( 0.0000000000000000000, 0.0000000000000000000, 1.000000000000000000 ) ) ;
#21 = PERSON_AND_ORGANIZATION ( #78, #166 ) ;
#22 = ADVANCED_FACE ( 'NONE', ( #6 ), #90, .T. ) ;
#23 = APPROVAL_STATUS ( 'not_yet_approved' ) ;
#24 = CARTESIAN_POINT ( 'NONE',  ( 0.0000000000000000000, 0.0000000000000000000, 0.5000000000000000000 ) ) ;
#25 =( NAMED_UNIT ( * ) PLANE_ANGLE_UNIT ( ) SI_UNIT ( $, .RADIAN. ) );
#26 = CALENDAR_DATE ( 2020, 11, 8 ) ;
#27 = APPROVAL ( #157, 'UNSPECIFIED' ) ;
#28 = PERSON_AND_ORGANIZATION ( #78, #166 ) ;
#29 = CIRCLE ( 'NONE', #128, 2.499999999999999556 ) ;
#30 = CC_DESIGN_SECURITY_CLASSIFICATION ( #107, ( #105 ) ) ;
#31 = EDGE_CURVE ( 'NONE', #112, #146, #80, .T. ) ;
#32 = SHAPE_DEFINITION_REPRESENTATION ( #116, #172 ) ;
#33 = EDGE_LOOP ( 'NONE', ( #92, #149, #160, #44 ) ) ;
#34 = EDGE_CURVE ( 'NONE', #97, #126, #70, .T. ) ;
#35 = DIRECTION ( 'NONE',  ( 0.0000000000000000000, 0.0000000000000000000, 1.000000000000000000 ) ) ;
#36 = CC_DESIGN_APPROVAL ( #27, ( #4 ) ) ;
#37 = APPROVAL_PERSON_ORGANIZATION ( #125, #122, #7 ) ;
#38 = PERSON_AND_ORGANIZATION_ROLE ( 'design_supplier' ) ;
#39 = DIRECTION ( 'NONE',  ( -1.000000000000000000, 0.0000000000000000000, 0.0000000000000000000 ) ) ;
#40 = PRODUCT_RELATED_PRODUCT_CATEGORY ( 'detail', '', ( #56 ) ) ;
#41 = ORIENTED_EDGE ( 'NONE', *, *, #84, .T. ) ;
#42 = CARTESIAN_POINT ( 'NONE',  ( 2.499999999999999556, 3.061616997868382648E-16, 0.5000000000000000000 ) ) ;
#43 = APPROVAL_ROLE ( '' ) ;
#44 = ORIENTED_EDGE ( 'NONE', *, *, #45, .T. ) ;
#45 = EDGE_CURVE ( 'NONE', #146, #112, #29, .T. ) ;
#46 = EDGE_LOOP ( 'NONE', ( #66, #142 ) ) ;
#47 = DATE_AND_TIME ( #26, #165 ) ;
#48 = ORIENTED_EDGE ( 'NONE', *, *, #31, .F. ) ;
#49 = AXIS2_PLACEMENT_3D ( 'NONE', #138, #52, #169 ) ;
#50 = APPROVAL_DATE_TIME ( #137, #148 ) ;
#51 = DIRECTION ( 'NONE',  ( 1.000000000000000000, 0.0000000000000000000, 0.0000000000000000000 ) ) ;
#52 = DIRECTION ( 'NONE',  ( 0.0000000000000000000, 0.0000000000000000000, 1.000000000000000000 ) ) ;
#53 = AXIS2_PLACEMENT_3D ( 'NONE', #19, #95, #94 ) ;
#54 = APPROVAL_ROLE ( '' ) ;
#55 = CARTESIAN_POINT ( 'NONE',  ( -2.499999999999999556, 0.0000000000000000000, 0.5000000000000000000 ) ) ;
#56 = PRODUCT ( 'Web Model 15467_15467', 'Web Model 15467_15467', '', ( #144 ) ) ;
#57 = CALENDAR_DATE ( 2020, 11, 8 ) ;
#58 = CC_DESIGN_PERSON_AND_ORGANIZATION_ASSIGNMENT ( #21, #10, ( #4 ) ) ;
#59 = PERSON_AND_ORGANIZATION ( #78, #166 ) ;
#60 = EDGE_LOOP ( 'NONE', ( #83, #48 ) ) ;
#61 = FACE_OUTER_BOUND ( 'NONE', #60, .T. ) ;
#62 = AXIS2_PLACEMENT_3D ( 'NONE', #3, #82, #63 ) ;
#63 = DIRECTION ( 'NONE',  ( 1.000000000000000000, 0.0000000000000000000, 0.0000000000000000000 ) ) ;
#64 = APPROVAL_DATE_TIME ( #168, #27 ) ;
#65 = CC_DESIGN_DATE_AND_TIME_ASSIGNMENT ( #47, #85, ( #4 ) ) ;
#66 = ORIENTED_EDGE ( 'NONE', *, *, #113, .T. ) ;
#67 = MANIFOLD_SOLID_BREP ( 'Boss-Extrude1', #76 ) ;
#68 = APPROVAL_STATUS ( 'not_yet_approved' ) ;
#69 = COORDINATED_UNIVERSAL_TIME_OFFSET ( 5, 0, .BEHIND. ) ;
#70 = CIRCLE ( 'NONE', #62, 2.499999999999999556 ) ;
#71 = ADVANCED_FACE ( 'NONE', ( #174 ), #93, .T. ) ;
#72 = ORIENTED_EDGE ( 'NONE', *, *, #11, .F. ) ;
#73 = CARTESIAN_POINT ( 'NONE',  ( -2.499999999999999556, 0.0000000000000000000, 0.5000000000000000000 ) ) ;
#74 = ADVANCED_FACE ( 'NONE', ( #61 ), #75, .F. ) ;
#75 = PLANE ( 'NONE',  #124 ) ;
#76 = CLOSED_SHELL ( 'NONE', ( #22, #175, #71, #74 ) ) ;
#77 =( NAMED_UNIT ( * ) SI_UNIT ( $, .STERADIAN. ) SOLID_ANGLE_UNIT ( ) );
#78 = PERSON ( 'UNSPECIFIED', 'UNSPECIFIED', 'UNSPECIFIED', ('UNSPECIFIED'), ('UNSPECIFIED'), ('UNSPECIFIED') ) ;
#79 = CALENDAR_DATE ( 2020, 11, 8 ) ;
#80 = CIRCLE ( 'NONE', #49, 2.499999999999999556 ) ;
#81 = AXIS2_PLACEMENT_3D ( 'NONE', #87, #129, #115 ) ;
#82 = DIRECTION ( 'NONE',  ( 0.0000000000000000000, 0.0000000000000000000, 1.000000000000000000 ) ) ;
#83 = ORIENTED_EDGE ( 'NONE', *, *, #45, .F. ) ;
#84 = EDGE_CURVE ( 'NONE', #97, #112, #140, .T. ) ;
#85 = DATE_TIME_ROLE ( 'creation_date' ) ;
#86 = FACE_OUTER_BOUND ( 'NONE', #33, .T. ) ;
#87 = CARTESIAN_POINT ( 'NONE',  ( 0.0000000000000000000, 0.0000000000000000000, 0.0000000000000000000 ) ) ;
#88 = PERSON_AND_ORGANIZATION ( #78, #166 ) ;
#89 = LOCAL_TIME ( 16, 41, 14.00000000000000000, #163 ) ;
#90 = CYLINDRICAL_SURFACE ( 'NONE', #53, 2.499999999999999556 ) ;
#91 = PERSON_AND_ORGANIZATION ( #78, #166 ) ;
#92 = ORIENTED_EDGE ( 'NONE', *, *, #84, .F. ) ;
#93 = PLANE ( 'NONE',  #118 ) ;
#94 = DIRECTION ( 'NONE',  ( -1.000000000000000000, 0.0000000000000000000, 0.0000000000000000000 ) ) ;
#95 = DIRECTION ( 'NONE',  ( -0.0000000000000000000, -0.0000000000000000000, -1.000000000000000000 ) ) ;
#96 = APPROVAL_DATE_TIME ( #156, #122 ) ;
#97 = VERTEX_POINT ( 'NONE', #42 ) ;
#98 = DIRECTION ( 'NONE',  ( 0.0000000000000000000, 0.0000000000000000000, 1.000000000000000000 ) ) ;
#99 = SECURITY_CLASSIFICATION_LEVEL ( 'unclassified' ) ;
#100 = CC_DESIGN_PERSON_AND_ORGANIZATION_ASSIGNMENT ( #110, #38, ( #105 ) ) ;
#101 = CARTESIAN_POINT ( 'NONE',  ( 2.499999999999999556, 3.061616997868382648E-16, 0.5000000000000000000 ) ) ;
#102 = APPLICATION_PROTOCOL_DEFINITION ( 'international standard', 'config_control_design', 1994, #8 ) ;
#103 = PERSON_AND_ORGANIZATION_ROLE ( 'classification_officer' ) ;
#104 = VECTOR ( 'NONE', #9, 1000.000000000000000 ) ;
#105 = PRODUCT_DEFINITION_FORMATION_WITH_SPECIFIED_SOURCE ( 'ANY', '', #56, .NOT_KNOWN. ) ;
#106 = LINE ( 'NONE', #73, #135 ) ;
#107 = SECURITY_CLASSIFICATION ( '', '', #99 ) ;
#108 = EDGE_LOOP ( 'NONE', ( #1, #41, #13, #72 ) ) ;
#109 = CARTESIAN_POINT ( 'NONE',  ( -2.499999999999999556, 0.0000000000000000000, -0.5000000000000000000 ) ) ;
#110 = PERSON_AND_ORGANIZATION ( #78, #166 ) ;
#111 = CARTESIAN_POINT ( 'NONE',  ( 0.0000000000000000000, 0.0000000000000000000, -0.5000000000000000000 ) ) ;
#112 = VERTEX_POINT ( 'NONE', #155 ) ;
#113 = EDGE_CURVE ( 'NONE', #126, #97, #162, .T. ) ;
#114 = APPLICATION_CONTEXT ( 'configuration controlled 3d designs of mechanical parts and assemblies' ) ;
#115 = DIRECTION ( 'NONE',  ( 1.000000000000000000, 0.0000000000000000000, 0.0000000000000000000 ) ) ;
#116 = PRODUCT_DEFINITION_SHAPE ( 'NONE', 'NONE',  #4 ) ;
#117 = PERSON_AND_ORGANIZATION_ROLE ( 'design_owner' ) ;
#118 = AXIS2_PLACEMENT_3D ( 'NONE', #16, #139, #153 ) ;
#119 = APPROVAL_PERSON_ORGANIZATION ( #88, #148, #43 ) ;
#120 = CC_DESIGN_PERSON_AND_ORGANIZATION_ASSIGNMENT ( #14, #103, ( #107 ) ) ;
#121 = COORDINATED_UNIVERSAL_TIME_OFFSET ( 5, 0, .BEHIND. ) ;
#122 = APPROVAL ( #23, 'UNSPECIFIED' ) ;
#123 = APPROVAL_PERSON_ORGANIZATION ( #91, #27, #54 ) ;
#124 = AXIS2_PLACEMENT_3D ( 'NONE', #167, #98, #171 ) ;
#125 = PERSON_AND_ORGANIZATION ( #78, #166 ) ;
#126 = VERTEX_POINT ( 'NONE', #55 ) ;
#127 = DIRECTION ( 'NONE',  ( -0.0000000000000000000, -0.0000000000000000000, -1.000000000000000000 ) ) ;
#128 = AXIS2_PLACEMENT_3D ( 'NONE', #111, #35, #51 ) ;
#129 = DIRECTION ( 'NONE',  ( 0.0000000000000000000, 0.0000000000000000000, 1.000000000000000000 ) ) ;
#130 =( LENGTH_UNIT ( ) NAMED_UNIT ( * ) SI_UNIT ( .MILLI., .METRE. ) );
#131 = APPLICATION_PROTOCOL_DEFINITION ( 'international standard', 'config_control_design', 1994, #114 ) ;
#132 = CYLINDRICAL_SURFACE ( 'NONE', #154, 2.499999999999999556 ) ;
#133 = AXIS2_PLACEMENT_3D ( 'NONE', #24, #20, #158 ) ;
#134 = COORDINATED_UNIVERSAL_TIME_OFFSET ( 5, 0, .BEHIND. ) ;
#135 = VECTOR ( 'NONE', #18, 1000.000000000000000 ) ;
#136 = CC_DESIGN_DATE_AND_TIME_ASSIGNMENT ( #145, #143, ( #107 ) ) ;
#137 = DATE_AND_TIME ( #15, #5 ) ;
#138 = CARTESIAN_POINT ( 'NONE',  ( 0.0000000000000000000, 0.0000000000000000000, -0.5000000000000000000 ) ) ;
#139 = DIRECTION ( 'NONE',  ( 0.0000000000000000000, 0.0000000000000000000, 1.000000000000000000 ) ) ;
#140 = LINE ( 'NONE', #101, #104 ) ;
#141 = PERSON_AND_ORGANIZATION_ROLE ( 'creator' ) ;
#142 = ORIENTED_EDGE ( 'NONE', *, *, #34, .T. ) ;
#143 = DATE_TIME_ROLE ( 'classification_date' ) ;
#144 = MECHANICAL_CONTEXT ( 'NONE', #8, 'mechanical' ) ;
#145 = DATE_AND_TIME ( #152, #89 ) ;
#146 = VERTEX_POINT ( 'NONE', #109 ) ;
#147 = CC_DESIGN_APPROVAL ( #148, ( #107 ) ) ;
#148 = APPROVAL ( #68, 'UNSPECIFIED' ) ;
#149 = ORIENTED_EDGE ( 'NONE', *, *, #113, .F. ) ;
#150 = CC_DESIGN_APPROVAL ( #122, ( #105 ) ) ;
#151 = DESIGN_CONTEXT ( 'detailed design', #114, 'design' ) ;
#152 = CALENDAR_DATE ( 2020, 11, 8 ) ;
#153 = DIRECTION ( 'NONE',  ( 1.000000000000000000, 0.0000000000000000000, -0.0000000000000000000 ) ) ;
#154 = AXIS2_PLACEMENT_3D ( 'NONE', #170, #127, #39 ) ;
#155 = CARTESIAN_POINT ( 'NONE',  ( 2.499999999999999556, 3.061616997868382648E-16, -0.5000000000000000000 ) ) ;
#156 = DATE_AND_TIME ( #79, #159 ) ;
#157 = APPROVAL_STATUS ( 'not_yet_approved' ) ;
#158 = DIRECTION ( 'NONE',  ( 1.000000000000000000, 0.0000000000000000000, 0.0000000000000000000 ) ) ;
#159 = LOCAL_TIME ( 16, 41, 14.00000000000000000, #173 ) ;
#160 = ORIENTED_EDGE ( 'NONE', *, *, #11, .T. ) ;
#161 = CC_DESIGN_PERSON_AND_ORGANIZATION_ASSIGNMENT ( #59, #141, ( #105 ) ) ;
#162 = CIRCLE ( 'NONE', #133, 2.499999999999999556 ) ;
#163 = COORDINATED_UNIVERSAL_TIME_OFFSET ( 5, 0, .BEHIND. ) ;
#164 = CC_DESIGN_PERSON_AND_ORGANIZATION_ASSIGNMENT ( #28, #117, ( #56 ) ) ;
#165 = LOCAL_TIME ( 16, 41, 14.00000000000000000, #134 ) ;
#166 = ORGANIZATION ( 'UNSPECIFIED', 'UNSPECIFIED', '' ) ;
#167 = CARTESIAN_POINT ( 'NONE',  ( 0.0000000000000000000, 0.0000000000000000000, -0.5000000000000000000 ) ) ;
#168 = DATE_AND_TIME ( #57, #17 ) ;
#169 = DIRECTION ( 'NONE',  ( 1.000000000000000000, 0.0000000000000000000, 0.0000000000000000000 ) ) ;
#170 = CARTESIAN_POINT ( 'NONE',  ( 0.0000000000000000000, 0.0000000000000000000, 0.5000000000000000000 ) ) ;
#171 = DIRECTION ( 'NONE',  ( 1.000000000000000000, 0.0000000000000000000, -0.0000000000000000000 ) ) ;
#172 = ADVANCED_BREP_SHAPE_REPRESENTATION ( 'Web Model 15467_15467', ( #67, #81 ), #2 ) ;
#173 = COORDINATED_UNIVERSAL_TIME_OFFSET ( 5, 0, .BEHIND. ) ;
#174 = FACE_OUTER_BOUND ( 'NONE', #46, .T. ) ;
#175 = ADVANCED_FACE ( 'NONE', ( #86 ), #132, .T. ) ;
ENDSEC;
END-ISO-10303-21;
