ISO-10303-21;
HEADER;
FILE_DESCRIPTION (( 'STEP AP203' ),
    '1' );
FILE_NAME ('TTN162756-E0W.STEP',
    '2019-10-24T14:06:22',
    ( '' ),
    ( '' ),
    'SwSTEP 2.0',
    'SolidWorks 2018',
    '' );
FILE_SCHEMA (( 'CONFIG_CONTROL_DESIGN' ));
ENDSEC;

DATA;
#1 = CC_DESIGN_PERSON_AND_ORGANIZATION_ASSIGNMENT ( #6, #28, ( #144 ) ) ;
#2 = DATE_AND_TIME ( #252, #57 ) ;
#3 = ORIENTED_EDGE ( 'NONE', *, *, #13, .T. ) ;
#4 = ORIENTED_EDGE ( 'NONE', *, *, #73, .T. ) ;
#5 = AXIS2_PLACEMENT_3D ( 'NONE', #119, #176, #199 ) ;
#6 = PERSON_AND_ORGANIZATION ( #94, #215 ) ;
#7 = CIRCLE ( 'NONE', #159, 1.499999999999999778 ) ;
#8 = PERSON_AND_ORGANIZATION ( #94, #215 ) ;
#9 = ADVANCED_FACE ( 'NONE', ( #175 ), #85, .T. ) ;
#10 = ORIENTED_EDGE ( 'NONE', *, *, #171, .T. ) ;
#11 = DIRECTION ( 'NONE',  ( 0.7071067811865398012, 0.0000000000000000000, 0.7071067811865552333 ) ) ;
#12 = DIRECTION ( 'NONE',  ( 0.0000000000000000000, 1.000000000000000000, 0.0000000000000000000 ) ) ;
#13 = EDGE_CURVE ( 'NONE', #38, #86, #27, .T. ) ;
#14 = PERSON_AND_ORGANIZATION ( #94, #215 ) ;
#15 = AXIS2_PLACEMENT_3D ( 'NONE', #308, #20, #77 ) ;
#16 = EDGE_CURVE ( 'NONE', #86, #264, #148, .T. ) ;
#17 = ORIENTED_EDGE ( 'NONE', *, *, #13, .F. ) ;
#18 = CARTESIAN_POINT ( 'NONE',  ( 1.810566346973242924, 1.527558064101699475, 1.264079769688193133 ) ) ;
#19 = CC_DESIGN_PERSON_AND_ORGANIZATION_ASSIGNMENT ( #8, #232, ( #235 ) ) ;
#20 = DIRECTION ( 'NONE',  ( 0.0000000000000000000, 0.0000000000000000000, 1.000000000000000000 ) ) ;
#21 = DIRECTION ( 'NONE',  ( -0.0000000000000000000, -0.0000000000000000000, 1.000000000000000000 ) ) ;
#22 = DIRECTION ( 'NONE',  ( -0.0000000000000000000, -0.0000000000000000000, 1.000000000000000000 ) ) ;
#23 = EDGE_LOOP ( 'NONE', ( #71, #220, #230, #53 ) ) ;
#24 = APPROVAL ( #231, 'UNSPECIFIED' ) ;
#25 = EDGE_CURVE ( 'NONE', #216, #211, #277, .T. ) ;
#26 = APPROVAL_ROLE ( '' ) ;
#27 = CIRCLE ( 'NONE', #181, 1.449999999999998845 ) ;
#28 = PERSON_AND_ORGANIZATION_ROLE ( 'classification_officer' ) ;
#29 = CYLINDRICAL_SURFACE ( 'NONE', #300, 1.499999999999999778 ) ;
#30 = MANIFOLD_SOLID_BREP ( 'TTN162718-1-solid1', #208 ) ;
#31 = EDGE_CURVE ( 'NONE', #47, #179, #301, .T. ) ;
#32 = LINE ( 'NONE', #299, #93 ) ;
#33 = CC_DESIGN_SECURITY_CLASSIFICATION ( #144, ( #112 ) ) ;
#34 = CARTESIAN_POINT ( 'NONE',  ( 1.810566346973242924, 1.527558064101699475, 2.714079769688192201 ) ) ;
#35 = SHAPE_DEFINITION_REPRESENTATION ( #202, #312 ) ;
#36 = AXIS2_PLACEMENT_3D ( 'NONE', #173, #266, #311 ) ;
#37 = EDGE_LOOP ( 'NONE', ( #258, #124, #4, #46, #320 ) ) ;
#38 = VERTEX_POINT ( 'NONE', #113 ) ;
#39 = DIRECTION ( 'NONE',  ( 1.000000000000000000, 0.0000000000000000000, 0.0000000000000000000 ) ) ;
#40 = DIRECTION ( 'NONE',  ( 0.0000000000000000000, 0.0000000000000000000, -1.000000000000000000 ) ) ;
#41 = CARTESIAN_POINT ( 'NONE',  ( 1.810566346973242924, 1.527558064101699475, 2.714079769688192201 ) ) ;
#42 = CONICAL_SURFACE ( 'NONE', #276, 1.499999999999999778, 0.7853981633974375098 ) ;
#43 = CARTESIAN_POINT ( 'NONE',  ( 1.810566346973242924, 1.527558064101699919, 2.714079769688191757 ) ) ;
#44 = DIRECTION ( 'NONE',  ( 1.000000000000000000, 0.0000000000000000000, 0.0000000000000000000 ) ) ;
#45 = DIRECTION ( 'NONE',  ( -1.000000000000000000, 0.0000000000000000000, 0.0000000000000000000 ) ) ;
#46 = ORIENTED_EDGE ( 'NONE', *, *, #54, .F. ) ;
#47 = VERTEX_POINT ( 'NONE', #164 ) ;
#48 = CC_DESIGN_PERSON_AND_ORGANIZATION_ASSIGNMENT ( #210, #321, ( #105 ) ) ;
#49 = FACE_OUTER_BOUND ( 'NONE', #79, .T. ) ;
#50 = CIRCLE ( 'NONE', #126, 1.499999999999999778 ) ;
#51 = PERSON_AND_ORGANIZATION_ROLE ( 'creator' ) ;
#52 = APPROVAL_PERSON_ORGANIZATION ( #203, #206, #26 ) ;
#53 = ORIENTED_EDGE ( 'NONE', *, *, #255, .F. ) ;
#54 = EDGE_CURVE ( 'NONE', #136, #314, #259, .T. ) ;
#55 = FACE_OUTER_BOUND ( 'NONE', #131, .T. ) ;
#56 = ORIENTED_EDGE ( 'NONE', *, *, #316, .F. ) ;
#57 = LOCAL_TIME ( 10, 6, 22.00000000000000000, #162 ) ;
#58 = FACE_OUTER_BOUND ( 'NONE', #23, .T. ) ;
#59 = CARTESIAN_POINT ( 'NONE',  ( 1.810566346973242924, 1.527558064101699475, 1.214079769688192423 ) ) ;
#60 = ORIENTED_EDGE ( 'NONE', *, *, #16, .T. ) ;
#61 = ADVANCED_FACE ( 'NONE', ( #58 ), #29, .T. ) ;
#62 = EDGE_CURVE ( 'NONE', #264, #111, #135, .T. ) ;
#63 = CC_DESIGN_DATE_AND_TIME_ASSIGNMENT ( #2, #184, ( #105 ) ) ;
#64 = CALENDAR_DATE ( 2019, 24, 10 ) ;
#65 = EDGE_CURVE ( 'NONE', #47, #314, #313, .T. ) ;
#66 = DIRECTION ( 'NONE',  ( 0.0000000000000000000, 0.0000000000000000000, -1.000000000000000000 ) ) ;
#67 = VECTOR ( 'NONE', #270, 1000.000000000000114 ) ;
#68 = ORIENTED_EDGE ( 'NONE', *, *, #83, .T. ) ;
#69 = CARTESIAN_POINT ( 'NONE',  ( 1.810566346973242924, 1.527558064101699475, 2.513616791219655422 ) ) ;
#70 = DIRECTION ( 'NONE',  ( -1.000000000000000000, 0.0000000000000000000, 0.0000000000000000000 ) ) ;
#71 = ORIENTED_EDGE ( 'NONE', *, *, #122, .T. ) ;
#72 = CARTESIAN_POINT ( 'NONE',  ( 3.310566346973242702, 1.527558064101699475, 2.513616791219655422 ) ) ;
#73 = EDGE_CURVE ( 'NONE', #234, #314, #76, .T. ) ;
#74 = APPROVAL_PERSON_ORGANIZATION ( #214, #24, #125 ) ;
#75 = DATE_TIME_ROLE ( 'classification_date' ) ;
#76 = CIRCLE ( 'NONE', #154, 1.499999999999999778 ) ;
#77 = DIRECTION ( 'NONE',  ( 1.000000000000000000, 0.0000000000000000000, 0.0000000000000000000 ) ) ;
#78 = PERSON_AND_ORGANIZATION ( #94, #215 ) ;
#79 = EDGE_LOOP ( 'NONE', ( #254, #10, #280, #100 ) ) ;
#80 = COORDINATED_UNIVERSAL_TIME_OFFSET ( 5, 0, .BEHIND. ) ;
#81 = CIRCLE ( 'NONE', #227, 1.450000000000000178 ) ;
#82 = AXIS2_PLACEMENT_3D ( 'NONE', #170, #191, #303 ) ;
#83 = EDGE_CURVE ( 'NONE', #314, #234, #7, .T. ) ;
#84 = DIRECTION ( 'NONE',  ( 0.0000000000000000000, 0.0000000000000000000, -1.000000000000000000 ) ) ;
#85 = SPHERICAL_SURFACE ( 'NONE', #134, 7.062000000000000277 ) ;
#86 = VERTEX_POINT ( 'NONE', #306 ) ;
#87 = CARTESIAN_POINT ( 'NONE',  ( 1.810566346973242924, 1.527558064101699475, 2.513616791219655422 ) ) ;
#88 = DIRECTION ( 'NONE',  ( 1.000000000000000000, 0.0000000000000000000, 0.0000000000000000000 ) ) ;
#89 = DIRECTION ( 'NONE',  ( 1.000000000000000000, 0.0000000000000000000, 0.0000000000000000000 ) ) ;
#90 = COORDINATED_UNIVERSAL_TIME_OFFSET ( 5, 0, .BEHIND. ) ;
#91 = CARTESIAN_POINT ( 'NONE',  ( 0.3605663469732440785, 1.527558064101699475, 2.563616791219655244 ) ) ;
#92 = DIRECTION ( 'NONE',  ( 0.0000000000000000000, 0.0000000000000000000, -1.000000000000000000 ) ) ;
#93 = VECTOR ( 'NONE', #11, 1000.000000000000114 ) ;
#94 = PERSON ( 'UNSPECIFIED', 'UNSPECIFIED', 'UNSPECIFIED', ('UNSPECIFIED'), ('UNSPECIFIED'), ('UNSPECIFIED') ) ;
#95 = CARTESIAN_POINT ( 'NONE',  ( 1.810566346973242924, 1.527558064101699475, 1.214079769688192423 ) ) ;
#96 = ORIENTED_EDGE ( 'NONE', *, *, #102, .F. ) ;
#97 = EDGE_CURVE ( 'NONE', #211, #216, #81, .T. ) ;
#98 = EDGE_CURVE ( 'NONE', #211, #179, #32, .T. ) ;
#99 = PERSON_AND_ORGANIZATION_ROLE ( 'design_supplier' ) ;
#100 = ORIENTED_EDGE ( 'NONE', *, *, #98, .F. ) ;
#101 = LOCAL_TIME ( 10, 6, 22.00000000000000000, #90 ) ;
#102 = EDGE_CURVE ( 'NONE', #38, #111, #163, .T. ) ;
#103 = ORIENTED_EDGE ( 'NONE', *, *, #25, .T. ) ;
#104 = EDGE_LOOP ( 'NONE', ( #160, #117, #167, #192 ) ) ;
#105 = PRODUCT_DEFINITION ( 'UNKNOWN', '', #112, #209 ) ;
#106 = CYLINDRICAL_SURFACE ( 'NONE', #141, 1.499999999999999778 ) ;
#107 = ADVANCED_FACE ( 'NONE', ( #110 ), #307, .T. ) ;
#108 = DIRECTION ( 'NONE',  ( -1.000000000000000000, 0.0000000000000000000, 0.0000000000000000000 ) ) ;
#109 = CARTESIAN_POINT ( 'NONE',  ( 0.3105663469732430904, 1.527558064101699475, 2.513616791219655422 ) ) ;
#110 = FACE_OUTER_BOUND ( 'NONE', #37, .T. ) ;
#111 = VERTEX_POINT ( 'NONE', #43 ) ;
#112 = PRODUCT_DEFINITION_FORMATION_WITH_SPECIFIED_SOURCE ( 'ANY', '', #235, .NOT_KNOWN. ) ;
#113 = CARTESIAN_POINT ( 'NONE',  ( 1.810566346973242702, 0.07755806410170194842, 2.563616791219655244 ) ) ;
#114 = EDGE_CURVE ( 'NONE', #264, #136, #224, .T. ) ;
#115 = DIRECTION ( 'NONE',  ( 1.000000000000000000, 0.0000000000000000000, 0.0000000000000000000 ) ) ;
#116 = LINE ( 'NONE', #120, #297 ) ;
#117 = ORIENTED_EDGE ( 'NONE', *, *, #31, .T. ) ;
#118 = DIRECTION ( 'NONE',  ( 0.0000000000000000000, 1.000000000000000000, 0.0000000000000000000 ) ) ;
#119 = CARTESIAN_POINT ( 'NONE',  ( 1.810566346973242924, 1.527558064101699475, 2.513616791219655422 ) ) ;
#120 = CARTESIAN_POINT ( 'NONE',  ( 3.310566346973242702, 1.527558064101699475, 2.714079769688192201 ) ) ;
#121 = CARTESIAN_POINT ( 'NONE',  ( 3.260566346973242879, 1.527558064101699475, 1.214079769688192423 ) ) ;
#122 = EDGE_CURVE ( 'NONE', #179, #47, #50, .T. ) ;
#123 = DIRECTION ( 'NONE',  ( 1.000000000000000000, 0.0000000000000000000, 0.0000000000000000000 ) ) ;
#124 = ORIENTED_EDGE ( 'NONE', *, *, #242, .T. ) ;
#125 = APPROVAL_ROLE ( '' ) ;
#126 = AXIS2_PLACEMENT_3D ( 'NONE', #18, #22, #178 ) ;
#127 = CC_DESIGN_APPROVAL ( #206, ( #112 ) ) ;
#128 = ORIENTED_EDGE ( 'NONE', *, *, #98, .T. ) ;
#129 =( LENGTH_UNIT ( ) NAMED_UNIT ( * ) SI_UNIT ( .MILLI., .METRE. ) );
#130 = VECTOR ( 'NONE', #194, 1000.000000000000114 ) ;
#131 = EDGE_LOOP ( 'NONE', ( #295, #17, #56, #240, #68 ) ) ;
#132 = LOCAL_TIME ( 10, 6, 22.00000000000000000, #262 ) ;
#133 = CC_DESIGN_PERSON_AND_ORGANIZATION_ASSIGNMENT ( #14, #51, ( #112 ) ) ;
#134 = AXIS2_PLACEMENT_3D ( 'NONE', #282, #108, #12 ) ;
#135 = CIRCLE ( 'NONE', #212, 7.061999999999999389 ) ;
#136 = VERTEX_POINT ( 'NONE', #91 ) ;
#137 = ORIENTED_EDGE ( 'NONE', *, *, #102, .T. ) ;
#138 = DIRECTION ( 'NONE',  ( -0.0000000000000000000, -0.0000000000000000000, 1.000000000000000000 ) ) ;
#139 = CARTESIAN_POINT ( 'NONE',  ( 1.810566346973242924, 1.527558064101699475, 1.214079769688192423 ) ) ;
#140 = AXIS2_PLACEMENT_3D ( 'NONE', #142, #302, #115 ) ;
#141 = AXIS2_PLACEMENT_3D ( 'NONE', #41, #265, #147 ) ;
#142 = CARTESIAN_POINT ( 'NONE',  ( 1.810566346973242924, 1.527558064101699475, 1.264079769688193133 ) ) ;
#143 = DATE_AND_TIME ( #274, #219 ) ;
#144 = SECURITY_CLASSIFICATION ( '', '', #185 ) ;
#145 = EDGE_LOOP ( 'NONE', ( #197, #137, #271, #309 ) ) ;
#146 = CARTESIAN_POINT ( 'NONE',  ( 1.810566346973242924, 1.527558064101699475, 1.264079769688193133 ) ) ;
#147 = DIRECTION ( 'NONE',  ( 1.000000000000000000, 0.0000000000000000000, 0.0000000000000000000 ) ) ;
#148 = CIRCLE ( 'NONE', #82, 1.449999999999998845 ) ;
#149 = CARTESIAN_POINT ( 'NONE',  ( 0.3605663469732425797, 1.527558064101699697, 1.214079769688192423 ) ) ;
#150 = APPLICATION_CONTEXT ( 'configuration controlled 3d designs of mechanical parts and assemblies' ) ;
#151 =( NAMED_UNIT ( * ) SI_UNIT ( $, .STERADIAN. ) SOLID_ANGLE_UNIT ( ) );
#152 = DATE_AND_TIME ( #64, #132 ) ;
#153 = ORIENTED_EDGE ( 'NONE', *, *, #62, .T. ) ;
#154 = AXIS2_PLACEMENT_3D ( 'NONE', #87, #172, #39 ) ;
#155 = APPLICATION_CONTEXT ( 'configuration controlled 3d designs of mechanical parts and assemblies' ) ;
#156 = FACE_OUTER_BOUND ( 'NONE', #145, .T. ) ;
#157 = PRODUCT_RELATED_PRODUCT_CATEGORY ( 'detail', '', ( #235 ) ) ;
#158 = CONICAL_SURFACE ( 'NONE', #256, 1.499999999999999778, 0.7853981633974591592 ) ;
#159 = AXIS2_PLACEMENT_3D ( 'NONE', #69, #245, #89 ) ;
#160 = ORIENTED_EDGE ( 'NONE', *, *, #65, .F. ) ;
#161 = EDGE_LOOP ( 'NONE', ( #180, #103 ) ) ;
#162 = COORDINATED_UNIVERSAL_TIME_OFFSET ( 5, 0, .BEHIND. ) ;
#163 = CIRCLE ( 'NONE', #36, 7.062000000000000277 ) ;
#164 = CARTESIAN_POINT ( 'NONE',  ( 0.3105663469732428683, 1.527558064101699697, 1.264079769688193133 ) ) ;
#165 = APPROVAL_DATE_TIME ( #239, #206 ) ;
#166 = DIRECTION ( 'NONE',  ( 1.000000000000000000, 0.0000000000000000000, 0.0000000000000000000 ) ) ;
#167 = ORIENTED_EDGE ( 'NONE', *, *, #255, .T. ) ;
#168 = DIRECTION ( 'NONE',  ( 1.000000000000000000, 0.0000000000000000000, 0.0000000000000000000 ) ) ;
#169 = ORIENTED_EDGE ( 'NONE', *, *, #97, .F. ) ;
#170 = CARTESIAN_POINT ( 'NONE',  ( 1.810566346973242924, 1.527558064101699475, 2.563616791219655244 ) ) ;
#171 = EDGE_CURVE ( 'NONE', #216, #47, #293, .T. ) ;
#172 = DIRECTION ( 'NONE',  ( -0.0000000000000000000, -0.0000000000000000000, 1.000000000000000000 ) ) ;
#173 = CARTESIAN_POINT ( 'NONE',  ( 1.810566346973242924, 1.527558064101699475, -4.347920230311808965 ) ) ;
#174 = DIRECTION ( 'NONE',  ( 0.0000000000000000000, -0.0000000000000000000, 1.000000000000000000 ) ) ;
#175 = FACE_OUTER_BOUND ( 'NONE', #241, .T. ) ;
#176 = DIRECTION ( 'NONE',  ( 0.0000000000000000000, 0.0000000000000000000, -1.000000000000000000 ) ) ;
#177 = CARTESIAN_POINT ( 'NONE',  ( 3.310566346973242702, 1.527558064101699475, 1.264079769688193133 ) ) ;
#178 = DIRECTION ( 'NONE',  ( 1.000000000000000000, 0.0000000000000000000, 0.0000000000000000000 ) ) ;
#179 = VERTEX_POINT ( 'NONE', #177 ) ;
#180 = ORIENTED_EDGE ( 'NONE', *, *, #97, .T. ) ;
#181 = AXIS2_PLACEMENT_3D ( 'NONE', #286, #138, #168 ) ;
#182 = APPLICATION_PROTOCOL_DEFINITION ( 'international standard', 'config_control_design', 1994, #155 ) ;
#183 = APPROVAL ( #253, 'UNSPECIFIED' ) ;
#184 = DATE_TIME_ROLE ( 'creation_date' ) ;
#185 = SECURITY_CLASSIFICATION_LEVEL ( 'unclassified' ) ;
#186 = VECTOR ( 'NONE', #304, 1000.000000000000114 ) ;
#187 = CC_DESIGN_DATE_AND_TIME_ASSIGNMENT ( #143, #75, ( #144 ) ) ;
#188 = CALENDAR_DATE ( 2019, 24, 10 ) ;
#189 = CALENDAR_DATE ( 2019, 24, 10 ) ;
#190 = SPHERICAL_SURFACE ( 'NONE', #285, 7.062000000000000277 ) ;
#191 = DIRECTION ( 'NONE',  ( -0.0000000000000000000, -0.0000000000000000000, 1.000000000000000000 ) ) ;
#192 = ORIENTED_EDGE ( 'NONE', *, *, #83, .F. ) ;
#193 = AXIS2_PLACEMENT_3D ( 'NONE', #95, #174, #123 ) ;
#194 = DIRECTION ( 'NONE',  ( -0.7071067811865552333, 0.0000000000000000000, -0.7071067811865398012 ) ) ;
#195 = CARTESIAN_POINT ( 'NONE',  ( 1.810566346973242924, 1.527558064101699475, 2.563616791219655244 ) ) ;
#196 = FACE_OUTER_BOUND ( 'NONE', #104, .T. ) ;
#197 = ORIENTED_EDGE ( 'NONE', *, *, #316, .T. ) ;
#198 = PLANE ( 'NONE',  #193 ) ;
#199 = DIRECTION ( 'NONE',  ( -1.000000000000000000, 0.0000000000000000000, 0.0000000000000000000 ) ) ;
#200 = DIRECTION ( 'NONE',  ( 1.000000000000000000, 0.0000000000000000000, 0.0000000000000000000 ) ) ;
#201 = CC_DESIGN_APPROVAL ( #24, ( #144 ) ) ;
#202 = PRODUCT_DEFINITION_SHAPE ( 'NONE', 'NONE',  #105 ) ;
#203 = PERSON_AND_ORGANIZATION ( #94, #215 ) ;
#204 = ORIENTED_EDGE ( 'NONE', *, *, #31, .F. ) ;
#205 = PERSON_AND_ORGANIZATION ( #94, #215 ) ;
#206 = APPROVAL ( #228, 'UNSPECIFIED' ) ;
#207 = FACE_OUTER_BOUND ( 'NONE', #279, .T. ) ;
#208 = CLOSED_SHELL ( 'NONE', ( #289, #217, #107, #61, #272, #281, #283, #9, #237 ) ) ;
#209 = DESIGN_CONTEXT ( 'detailed design', #155, 'design' ) ;
#210 = PERSON_AND_ORGANIZATION ( #94, #215 ) ;
#211 = VERTEX_POINT ( 'NONE', #121 ) ;
#212 = AXIS2_PLACEMENT_3D ( 'NONE', #221, #263, #66 ) ;
#213 =( GEOMETRIC_REPRESENTATION_CONTEXT ( 3 ) GLOBAL_UNCERTAINTY_ASSIGNED_CONTEXT ( ( #238 ) ) GLOBAL_UNIT_ASSIGNED_CONTEXT ( ( #129, #315, #151 ) ) REPRESENTATION_CONTEXT ( 'NONE', 'WORKASPACE' ) );
#214 = PERSON_AND_ORGANIZATION ( #94, #215 ) ;
#215 = ORGANIZATION ( 'UNSPECIFIED', 'UNSPECIFIED', '' ) ;
#216 = VERTEX_POINT ( 'NONE', #149 ) ;
#217 = ADVANCED_FACE ( 'NONE', ( #156 ), #190, .T. ) ;
#218 = CARTESIAN_POINT ( 'NONE',  ( 0.3105663469732428683, 1.527558064101699697, 2.714079769688192201 ) ) ;
#219 = LOCAL_TIME ( 10, 6, 22.00000000000000000, #80 ) ;
#220 = ORIENTED_EDGE ( 'NONE', *, *, #65, .T. ) ;
#221 = CARTESIAN_POINT ( 'NONE',  ( 1.810566346973242924, 1.527558064101699475, -4.347920230311808965 ) ) ;
#222 = DIRECTION ( 'NONE',  ( 1.000000000000000000, 0.0000000000000000000, 0.0000000000000000000 ) ) ;
#223 = CARTESIAN_POINT ( 'NONE',  ( 1.810566346973242924, 1.527558064101699475, -4.347920230311808965 ) ) ;
#224 = CIRCLE ( 'NONE', #317, 1.449999999999998845 ) ;
#225 = CARTESIAN_POINT ( 'NONE',  ( 0.3105663469732428683, 1.527558064101699697, 1.264079769688193133 ) ) ;
#226 = CC_DESIGN_APPROVAL ( #183, ( #105 ) ) ;
#227 = AXIS2_PLACEMENT_3D ( 'NONE', #59, #84, #260 ) ;
#228 = APPROVAL_STATUS ( 'not_yet_approved' ) ;
#229 = AXIS2_PLACEMENT_3D ( 'NONE', #146, #268, #222 ) ;
#230 = ORIENTED_EDGE ( 'NONE', *, *, #73, .F. ) ;
#231 = APPROVAL_STATUS ( 'not_yet_approved' ) ;
#232 = PERSON_AND_ORGANIZATION_ROLE ( 'design_owner' ) ;
#233 = LOCAL_TIME ( 10, 6, 22.00000000000000000, #249 ) ;
#234 = VERTEX_POINT ( 'NONE', #72 ) ;
#235 = PRODUCT ( 'TTN162756-E0W', 'TTN162756-E0W', '', ( #290 ) ) ;
#236 = CC_DESIGN_PERSON_AND_ORGANIZATION_ASSIGNMENT ( #205, #99, ( #112 ) ) ;
#237 = ADVANCED_FACE ( 'NONE', ( #207 ), #42, .T. ) ;
#238 = UNCERTAINTY_MEASURE_WITH_UNIT (LENGTH_MEASURE( 1.000000000000000082E-05 ), #129, 'distance_accuracy_value', 'NONE');
#239 = DATE_AND_TIME ( #188, #101 ) ;
#240 = ORIENTED_EDGE ( 'NONE', *, *, #54, .T. ) ;
#241 = EDGE_LOOP ( 'NONE', ( #96, #3, #60, #153 ) ) ;
#242 = EDGE_CURVE ( 'NONE', #86, #234, #319, .T. ) ;
#243 = DIRECTION ( 'NONE',  ( 1.000000000000000000, 0.0000000000000000000, 0.0000000000000000000 ) ) ;
#244 = DIRECTION ( 'NONE',  ( -0.0000000000000000000, -0.0000000000000000000, 1.000000000000000000 ) ) ;
#245 = DIRECTION ( 'NONE',  ( -0.0000000000000000000, -0.0000000000000000000, 1.000000000000000000 ) ) ;
#246 = DIRECTION ( 'NONE',  ( -0.0000000000000000000, -0.0000000000000000000, 1.000000000000000000 ) ) ;
#247 = CARTESIAN_POINT ( 'NONE',  ( 1.810566346973242924, 1.527558064101699475, 1.264079769688193133 ) ) ;
#248 = CARTESIAN_POINT ( 'NONE',  ( 1.810566346973242924, 1.527558064101699475, 2.513616791219655422 ) ) ;
#249 = COORDINATED_UNIVERSAL_TIME_OFFSET ( 5, 0, .BEHIND. ) ;
#250 = DIRECTION ( 'NONE',  ( -0.0000000000000000000, -0.0000000000000000000, 1.000000000000000000 ) ) ;
#251 = VECTOR ( 'NONE', #244, 1000.000000000000000 ) ;
#252 = CALENDAR_DATE ( 2019, 24, 10 ) ;
#253 = APPROVAL_STATUS ( 'not_yet_approved' ) ;
#254 = ORIENTED_EDGE ( 'NONE', *, *, #25, .F. ) ;
#255 = EDGE_CURVE ( 'NONE', #179, #234, #116, .T. ) ;
#256 = AXIS2_PLACEMENT_3D ( 'NONE', #248, #92, #70 ) ;
#257 = FACE_OUTER_BOUND ( 'NONE', #161, .T. ) ;
#258 = ORIENTED_EDGE ( 'NONE', *, *, #16, .F. ) ;
#259 = LINE ( 'NONE', #109, #130 ) ;
#260 = DIRECTION ( 'NONE',  ( 1.000000000000000000, 0.0000000000000000000, 0.0000000000000000000 ) ) ;
#261 = DIRECTION ( 'NONE',  ( -0.0000000000000000000, -0.0000000000000000000, 1.000000000000000000 ) ) ;
#262 = COORDINATED_UNIVERSAL_TIME_OFFSET ( 5, 0, .BEHIND. ) ;
#263 = DIRECTION ( 'NONE',  ( 1.000000000000000000, 0.0000000000000000000, 0.0000000000000000000 ) ) ;
#264 = VERTEX_POINT ( 'NONE', #273 ) ;
#265 = DIRECTION ( 'NONE',  ( -0.0000000000000000000, -0.0000000000000000000, 1.000000000000000000 ) ) ;
#266 = DIRECTION ( 'NONE',  ( -1.000000000000000000, 1.224646799147353207E-16, 0.0000000000000000000 ) ) ;
#267 = CARTESIAN_POINT ( 'NONE',  ( 0.3105663469732430904, 1.527558064101699697, 2.513616791219655422 ) ) ;
#268 = DIRECTION ( 'NONE',  ( -0.0000000000000000000, -0.0000000000000000000, 1.000000000000000000 ) ) ;
#269 = APPROVAL_DATE_TIME ( #294, #183 ) ;
#270 = DIRECTION ( 'NONE',  ( -0.7071067811865398012, 8.659560562354839181E-17, 0.7071067811865552333 ) ) ;
#271 = ORIENTED_EDGE ( 'NONE', *, *, #62, .F. ) ;
#272 = ADVANCED_FACE ( 'NONE', ( #257 ), #198, .F. ) ;
#273 = CARTESIAN_POINT ( 'NONE',  ( 1.810566346973242924, 2.977558064101696989, 2.563616791219655244 ) ) ;
#274 = CALENDAR_DATE ( 2019, 24, 10 ) ;
#275 = AXIS2_PLACEMENT_3D ( 'NONE', #139, #40, #243 ) ;
#276 = AXIS2_PLACEMENT_3D ( 'NONE', #247, #246, #44 ) ;
#277 = CIRCLE ( 'NONE', #275, 1.450000000000000178 ) ;
#278 = APPLICATION_PROTOCOL_DEFINITION ( 'international standard', 'config_control_design', 1994, #150 ) ;
#279 = EDGE_LOOP ( 'NONE', ( #284, #169, #128, #204 ) ) ;
#280 = ORIENTED_EDGE ( 'NONE', *, *, #122, .F. ) ;
#281 = ADVANCED_FACE ( 'NONE', ( #196 ), #106, .T. ) ;
#282 = CARTESIAN_POINT ( 'NONE',  ( 1.810566346973242924, 1.527558064101699475, -4.347920230311808965 ) ) ;
#283 = ADVANCED_FACE ( 'NONE', ( #55 ), #158, .T. ) ;
#284 = ORIENTED_EDGE ( 'NONE', *, *, #171, .F. ) ;
#285 = AXIS2_PLACEMENT_3D ( 'NONE', #223, #45, #118 ) ;
#286 = CARTESIAN_POINT ( 'NONE',  ( 1.810566346973242924, 1.527558064101699475, 2.563616791219655244 ) ) ;
#287 = CARTESIAN_POINT ( 'NONE',  ( 3.310566346973242702, 1.527558064101699697, 2.513616791219655422 ) ) ;
#288 = DIRECTION ( 'NONE',  ( -0.0000000000000000000, -0.0000000000000000000, 1.000000000000000000 ) ) ;
#289 = ADVANCED_FACE ( 'NONE', ( #49 ), #292, .T. ) ;
#290 = MECHANICAL_CONTEXT ( 'NONE', #150, 'mechanical' ) ;
#291 = APPROVAL_ROLE ( '' ) ;
#292 = CONICAL_SURFACE ( 'NONE', #229, 1.499999999999999778, 0.7853981633974375098 ) ;
#293 = LINE ( 'NONE', #225, #67 ) ;
#294 = DATE_AND_TIME ( #189, #233 ) ;
#295 = ORIENTED_EDGE ( 'NONE', *, *, #242, .F. ) ;
#296 = AXIS2_PLACEMENT_3D ( 'NONE', #310, #21, #200 ) ;
#297 = VECTOR ( 'NONE', #250, 1000.000000000000000 ) ;
#298 = APPROVAL_PERSON_ORGANIZATION ( #78, #183, #291 ) ;
#299 = CARTESIAN_POINT ( 'NONE',  ( 3.310566346973242702, 1.527558064101699475, 1.264079769688193133 ) ) ;
#300 = AXIS2_PLACEMENT_3D ( 'NONE', #34, #261, #166 ) ;
#301 = CIRCLE ( 'NONE', #140, 1.499999999999999778 ) ;
#302 = DIRECTION ( 'NONE',  ( -0.0000000000000000000, -0.0000000000000000000, 1.000000000000000000 ) ) ;
#303 = DIRECTION ( 'NONE',  ( 1.000000000000000000, 0.0000000000000000000, 0.0000000000000000000 ) ) ;
#304 = DIRECTION ( 'NONE',  ( 0.7071067811865552333, 8.659560562355026535E-17, -0.7071067811865398012 ) ) ;
#305 = CIRCLE ( 'NONE', #296, 1.449999999999998845 ) ;
#306 = CARTESIAN_POINT ( 'NONE',  ( 3.260566346973241547, 1.527558064101699697, 2.563616791219655244 ) ) ;
#307 = CONICAL_SURFACE ( 'NONE', #5, 1.499999999999999778, 0.7853981633974591592 ) ;
#308 = CARTESIAN_POINT ( 'NONE',  ( 0.0000000000000000000, 0.0000000000000000000, 0.0000000000000000000 ) ) ;
#309 = ORIENTED_EDGE ( 'NONE', *, *, #114, .T. ) ;
#310 = CARTESIAN_POINT ( 'NONE',  ( 1.810566346973242924, 1.527558064101699475, 2.563616791219655244 ) ) ;
#311 = DIRECTION ( 'NONE',  ( -1.228209767754748564E-16, -1.000000000000000000, 0.0000000000000000000 ) ) ;
#312 = ADVANCED_BREP_SHAPE_REPRESENTATION ( 'TTN162756-E0W', ( #30, #15 ), #213 ) ;
#313 = LINE ( 'NONE', #218, #251 ) ;
#314 = VERTEX_POINT ( 'NONE', #267 ) ;
#315 =( NAMED_UNIT ( * ) PLANE_ANGLE_UNIT ( ) SI_UNIT ( $, .RADIAN. ) );
#316 = EDGE_CURVE ( 'NONE', #136, #38, #305, .T. ) ;
#317 = AXIS2_PLACEMENT_3D ( 'NONE', #195, #288, #88 ) ;
#318 = APPROVAL_DATE_TIME ( #152, #24 ) ;
#319 = LINE ( 'NONE', #287, #186 ) ;
#320 = ORIENTED_EDGE ( 'NONE', *, *, #114, .F. ) ;
#321 = PERSON_AND_ORGANIZATION_ROLE ( 'creator' ) ;
ENDSEC;
END-ISO-10303-21;
