ISO-10303-21;
HEADER;
FILE_DESCRIPTION (( 'STEP AP203' ),
    '1' );
FILE_NAME ('Web Model 47048_47048.step',
    '2017-06-06T16:57:12',
    ( '' ),
    ( '' ),
    'SwSTEP 2.0',
    'SolidWorks 2016',
    '' );
FILE_SCHEMA (( 'CONFIG_CONTROL_DESIGN' ));
ENDSEC;

DATA;
#1 = FACE_OUTER_BOUND ( 'NONE', #228, .T. ) ;
#2 = VERTEX_POINT ( 'NONE', #113 ) ;
#3 = DIRECTION ( 'NONE',  ( 0.0000000000000000000, -0.0000000000000000000, 1.000000000000000000 ) ) ;
#4 = ORIENTED_EDGE ( 'NONE', *, *, #5, .T. ) ;
#5 = EDGE_CURVE ( 'NONE', #49, #78, #111, .T. ) ;
#6 = DIRECTION ( 'NONE',  ( 0.0000000000000000000, 1.000000000000000000, -0.0000000000000000000 ) ) ;
#7 = VERTEX_POINT ( 'NONE', #112 ) ;
#8 = ADVANCED_FACE ( 'NONE', ( #297 ), #39, .T. ) ;
#9 = CC_DESIGN_PERSON_AND_ORGANIZATION_ASSIGNMENT ( #70, #45, ( #316 ) ) ;
#10 = ORIENTED_EDGE ( 'NONE', *, *, #72, .T. ) ;
#11 = PLANE ( 'NONE',  #166 ) ;
#12 = EDGE_LOOP ( 'NONE', ( #32, #4, #82 ) ) ;
#13 = AXIS2_PLACEMENT_3D ( 'NONE', #313, #256, #193 ) ;
#14 = CARTESIAN_POINT ( 'NONE',  ( -12.50000000000000000, 0.0000000000000000000, -12.50000000000000000 ) ) ;
#15 = CARTESIAN_POINT ( 'NONE',  ( -0.0000000000000000000, 0.0000000000000000000, -12.50000000000000000 ) ) ;
#16 = CARTESIAN_POINT ( 'NONE',  ( 0.0000000000000000000, 12.50000000000000000, 12.50000000000000000 ) ) ;
#17 = DIRECTION ( 'NONE',  ( 0.0000000000000000000, 1.000000000000000000, 0.0000000000000000000 ) ) ;
#18 = EDGE_LOOP ( 'NONE', ( #296, #260, #131 ) ) ;
#19 = LINE ( 'NONE', #33, #123 ) ;
#20 = CARTESIAN_POINT ( 'NONE',  ( 12.50000000000000000, -12.50000000000000000, -12.50000000000000000 ) ) ;
#21 = PLANE ( 'NONE',  #194 ) ;
#22 = EDGE_CURVE ( 'NONE', #310, #62, #267, .T. ) ;
#23 = PERSON_AND_ORGANIZATION_ROLE ( 'design_supplier' ) ;
#24 = CC_DESIGN_DATE_AND_TIME_ASSIGNMENT ( #319, #215, ( #316 ) ) ;
#25 = EDGE_LOOP ( 'NONE', ( #40, #271, #121, #56 ) ) ;
#26 = LOCAL_TIME ( 12, 57, 12.00000000000000000, #65 ) ;
#27 = VECTOR ( 'NONE', #6, 1000.000000000000000 ) ;
#28 = ORIENTED_EDGE ( 'NONE', *, *, #22, .T. ) ;
#29 = APPLICATION_CONTEXT ( 'configuration controlled 3d designs of mechanical parts and assemblies' ) ;
#30 =( GEOMETRIC_REPRESENTATION_CONTEXT ( 3 ) GLOBAL_UNCERTAINTY_ASSIGNED_CONTEXT ( ( #278 ) ) GLOBAL_UNIT_ASSIGNED_CONTEXT ( ( #98, #196, #251 ) ) REPRESENTATION_CONTEXT ( 'NONE', 'WORKASPACE' ) );
#31 = ADVANCED_FACE ( 'NONE', ( #79 ), #43, .F. ) ;
#32 = ORIENTED_EDGE ( 'NONE', *, *, #170, .T. ) ;
#33 = CARTESIAN_POINT ( 'NONE',  ( 12.50000000000000000, -12.50000000000000000, 12.50000000000000000 ) ) ;
#34 = LINE ( 'NONE', #150, #163 ) ;
#35 = CARTESIAN_POINT ( 'NONE',  ( 12.50000000000000000, 12.50000000000000000, 12.50000000000000000 ) ) ;
#36 = APPROVAL_ROLE ( '' ) ;
#37 = LOCAL_TIME ( 12, 57, 12.00000000000000000, #223 ) ;
#38 = VECTOR ( 'NONE', #182, 1000.000000000000000 ) ;
#39 = PLANE ( 'NONE',  #63 ) ;
#40 = ORIENTED_EDGE ( 'NONE', *, *, #311, .F. ) ;
#41 = APPROVAL ( #64, 'UNSPECIFIED' ) ;
#42 = PLANE ( 'NONE',  #129 ) ;
#43 = PLANE ( 'NONE',  #97 ) ;
#44 = LINE ( 'NONE', #232, #95 ) ;
#45 = PERSON_AND_ORGANIZATION_ROLE ( 'classification_officer' ) ;
#46 = AXIS2_PLACEMENT_3D ( 'NONE', #274, #178, #3 ) ;
#47 = ADVANCED_BREP_SHAPE_REPRESENTATION ( 'Web Model 47048_47048', ( #141, #154, #108 ), #30 ) ;
#48 = VECTOR ( 'NONE', #246, 1000.000000000000000 ) ;
#49 = VERTEX_POINT ( 'NONE', #159 ) ;
#50 = PERSON_AND_ORGANIZATION ( #250, #200 ) ;
#51 = CLOSED_SHELL ( 'NONE', ( #125, #31, #76, #100, #254 ) ) ;
#52 = CC_DESIGN_APPROVAL ( #41, ( #316 ) ) ;
#53 = EDGE_CURVE ( 'NONE', #55, #62, #218, .T. ) ;
#54 = VERTEX_POINT ( 'NONE', #59 ) ;
#55 = VERTEX_POINT ( 'NONE', #236 ) ;
#56 = ORIENTED_EDGE ( 'NONE', *, *, #220, .T. ) ;
#57 = VERTEX_POINT ( 'NONE', #183 ) ;
#58 = ORIENTED_EDGE ( 'NONE', *, *, #88, .F. ) ;
#59 = CARTESIAN_POINT ( 'NONE',  ( -12.50000000000000000, -12.50000000000000000, 12.50000000000000000 ) ) ;
#60 = PLANE ( 'NONE',  #304 ) ;
#61 = CARTESIAN_POINT ( 'NONE',  ( 12.50000000000000000, -12.50000000000000000, 12.50000000000000000 ) ) ;
#62 = VERTEX_POINT ( 'NONE', #20 ) ;
#63 = AXIS2_PLACEMENT_3D ( 'NONE', #116, #185, #293 ) ;
#64 = APPROVAL_STATUS ( 'not_yet_approved' ) ;
#65 = COORDINATED_UNIVERSAL_TIME_OFFSET ( 5, 0, .BEHIND. ) ;
#66 = CC_DESIGN_SECURITY_CLASSIFICATION ( #316, ( #224 ) ) ;
#67 = CARTESIAN_POINT ( 'NONE',  ( -12.50000000000000000, 12.50000000000000000, 12.50000000000000000 ) ) ;
#68 = ORIENTED_EDGE ( 'NONE', *, *, #149, .F. ) ;
#69 = ORIENTED_EDGE ( 'NONE', *, *, #240, .F. ) ;
#70 = PERSON_AND_ORGANIZATION ( #250, #200 ) ;
#71 = DIRECTION ( 'NONE',  ( -0.0000000000000000000, -0.0000000000000000000, -1.000000000000000000 ) ) ;
#72 = EDGE_CURVE ( 'NONE', #54, #55, #105, .T. ) ;
#73 = DIRECTION ( 'NONE',  ( 1.000000000000000000, 0.0000000000000000000, 0.0000000000000000000 ) ) ;
#74 = EDGE_LOOP ( 'NONE', ( #120, #179, #282 ) ) ;
#75 = COORDINATED_UNIVERSAL_TIME_OFFSET ( 5, 0, .BEHIND. ) ;
#76 = ADVANCED_FACE ( 'NONE', ( #262 ), #42, .T. ) ;
#77 = PERSON_AND_ORGANIZATION ( #250, #200 ) ;
#78 = VERTEX_POINT ( 'NONE', #181 ) ;
#79 = FACE_OUTER_BOUND ( 'NONE', #257, .T. ) ;
#80 = DIRECTION ( 'NONE',  ( -0.0000000000000000000, -0.0000000000000000000, -1.000000000000000000 ) ) ;
#81 = LOCAL_TIME ( 12, 57, 12.00000000000000000, #75 ) ;
#82 = ORIENTED_EDGE ( 'NONE', *, *, #101, .F. ) ;
#83 = DIRECTION ( 'NONE',  ( 0.7071067811865475700, 0.7071067811865475700, -0.0000000000000000000 ) ) ;
#84 = DIRECTION ( 'NONE',  ( -1.000000000000000000, 0.0000000000000000000, 0.0000000000000000000 ) ) ;
#85 = VECTOR ( 'NONE', #317, 1000.000000000000100 ) ;
#86 = PRODUCT_RELATED_PRODUCT_CATEGORY ( 'detail', '', ( #192 ) ) ;
#87 = EDGE_LOOP ( 'NONE', ( #58, #247, #258, #134 ) ) ;
#88 = EDGE_CURVE ( 'NONE', #295, #62, #157, .T. ) ;
#89 = CARTESIAN_POINT ( 'NONE',  ( 0.0000000000000000000, -12.50000000000000000, -12.50000000000000000 ) ) ;
#90 = DATE_AND_TIME ( #168, #37 ) ;
#91 = CALENDAR_DATE ( 2017, 6, 6 ) ;
#92 = EDGE_LOOP ( 'NONE', ( #286, #68, #167, #162 ) ) ;
#93 = LINE ( 'NONE', #16, #171 ) ;
#94 = LINE ( 'NONE', #292, #109 ) ;
#95 = VECTOR ( 'NONE', #71, 1000.000000000000000 ) ;
#96 = MECHANICAL_CONTEXT ( 'NONE', #29, 'mechanical' ) ;
#97 = AXIS2_PLACEMENT_3D ( 'NONE', #238, #84, #213 ) ;
#98 =( LENGTH_UNIT ( ) NAMED_UNIT ( * ) SI_UNIT ( .MILLI., .METRE. ) );
#99 = APPLICATION_PROTOCOL_DEFINITION ( 'international standard', 'config_control_design', 1994, #197 ) ;
#100 = ADVANCED_FACE ( 'NONE', ( #114 ), #11, .T. ) ;
#101 = EDGE_CURVE ( 'NONE', #248, #78, #93, .T. ) ;
#102 = CARTESIAN_POINT ( 'NONE',  ( 0.0000000000000000000, 0.0000000000000000000, -12.50000000000000000 ) ) ;
#103 = DATE_AND_TIME ( #176, #81 ) ;
#104 = LINE ( 'NONE', #35, #48 ) ;
#105 = LINE ( 'NONE', #234, #188 ) ;
#106 = DIRECTION ( 'NONE',  ( 0.0000000000000000000, 1.000000000000000000, -0.0000000000000000000 ) ) ;
#107 = DIRECTION ( 'NONE',  ( -0.0000000000000000000, 0.0000000000000000000, 1.000000000000000000 ) ) ;
#108 = AXIS2_PLACEMENT_3D ( 'NONE', #312, #277, #73 ) ;
#109 = VECTOR ( 'NONE', #180, 1000.000000000000100 ) ;
#110 = DIRECTION ( 'NONE',  ( -0.7071067811865474600, 0.7071067811865474600, 0.0000000000000000000 ) ) ;
#111 = LINE ( 'NONE', #291, #281 ) ;
#112 = CARTESIAN_POINT ( 'NONE',  ( 12.50000000000000000, 12.50000000000000000, -12.50000000000000000 ) ) ;
#113 = CARTESIAN_POINT ( 'NONE',  ( -12.50000000000000000, 12.50000000000000000, -12.50000000000000000 ) ) ;
#114 = FACE_OUTER_BOUND ( 'NONE', #12, .T. ) ;
#115 = ORIENTED_EDGE ( 'NONE', *, *, #149, .T. ) ;
#116 = CARTESIAN_POINT ( 'NONE',  ( 0.0000000000000000000, 0.0000000000000000000, 12.50000000000000000 ) ) ;
#117 = FACE_OUTER_BOUND ( 'NONE', #190, .T. ) ;
#118 = PERSON_AND_ORGANIZATION ( #250, #200 ) ;
#119 = EDGE_CURVE ( 'NONE', #57, #55, #94, .T. ) ;
#120 = ORIENTED_EDGE ( 'NONE', *, *, #311, .T. ) ;
#121 = ORIENTED_EDGE ( 'NONE', *, *, #240, .T. ) ;
#122 = ORIENTED_EDGE ( 'NONE', *, *, #275, .T. ) ;
#123 = VECTOR ( 'NONE', #263, 1000.000000000000000 ) ;
#124 = CC_DESIGN_PERSON_AND_ORGANIZATION_ASSIGNMENT ( #261, #279, ( #192 ) ) ;
#125 = ADVANCED_FACE ( 'NONE', ( #1 ), #21, .F. ) ;
#126 = APPROVAL_PERSON_ORGANIZATION ( #139, #156, #36 ) ;
#127 = VECTOR ( 'NONE', #288, 1000.000000000000000 ) ;
#128 = CARTESIAN_POINT ( 'NONE',  ( -0.0000000000000000000, 0.0000000000000000000, -12.50000000000000000 ) ) ;
#129 = AXIS2_PLACEMENT_3D ( 'NONE', #133, #17, #158 ) ;
#130 = DIRECTION ( 'NONE',  ( 1.000000000000000000, 0.0000000000000000000, 0.0000000000000000000 ) ) ;
#131 = ORIENTED_EDGE ( 'NONE', *, *, #204, .F. ) ;
#132 = CARTESIAN_POINT ( 'NONE',  ( 0.0000000000000000000, 0.0000000000000000000, 12.50000000000000000 ) ) ;
#133 = CARTESIAN_POINT ( 'NONE',  ( 0.0000000000000000000, 12.50000000000000000, 12.50000000000000000 ) ) ;
#134 = ORIENTED_EDGE ( 'NONE', *, *, #53, .T. ) ;
#135 = VECTOR ( 'NONE', #315, 1000.000000000000000 ) ;
#136 = VECTOR ( 'NONE', #210, 1000.000000000000000 ) ;
#137 = DIRECTION ( 'NONE',  ( 1.000000000000000000, 0.0000000000000000000, 0.0000000000000000000 ) ) ;
#138 = EDGE_CURVE ( 'NONE', #49, #212, #19, .T. ) ;
#139 = PERSON_AND_ORGANIZATION ( #250, #200 ) ;
#140 = PRODUCT_DEFINITION ( 'UNKNOWN', '', #224, #225 ) ;
#141 = MANIFOLD_SOLID_BREP ( 'Boss-Extrude2', #199 ) ;
#142 = VECTOR ( 'NONE', #80, 1000.000000000000000 ) ;
#143 = APPROVAL_DATE_TIME ( #265, #41 ) ;
#144 = FACE_OUTER_BOUND ( 'NONE', #145, .T. ) ;
#145 = EDGE_LOOP ( 'NONE', ( #28, #241, #318, #122 ) ) ;
#146 = APPLICATION_PROTOCOL_DEFINITION ( 'international standard', 'config_control_design', 1994, #29 ) ;
#147 = ADVANCED_FACE ( 'NONE', ( #117 ), #214, .T. ) ;
#148 = DATE_AND_TIME ( #91, #249 ) ;
#149 = EDGE_CURVE ( 'NONE', #248, #2, #217, .T. ) ;
#150 = CARTESIAN_POINT ( 'NONE',  ( 0.0000000000000000000, 0.0000000000000000000, 12.50000000000000000 ) ) ;
#151 = CARTESIAN_POINT ( 'NONE',  ( -12.50000000000000000, -12.50000000000000000, -12.50000000000000000 ) ) ;
#152 = LINE ( 'NONE', #309, #252 ) ;
#153 = APPROVAL_DATE_TIME ( #148, #156 ) ;
#154 = MANIFOLD_SOLID_BREP ( 'Boss-Extrude3', #51 ) ;
#155 = DIRECTION ( 'NONE',  ( 0.0000000000000000000, 0.0000000000000000000, 1.000000000000000000 ) ) ;
#156 = APPROVAL ( #305, 'UNSPECIFIED' ) ;
#157 = LINE ( 'NONE', #128, #85 ) ;
#158 = DIRECTION ( 'NONE',  ( 0.0000000000000000000, -0.0000000000000000000, 1.000000000000000000 ) ) ;
#159 = CARTESIAN_POINT ( 'NONE',  ( 12.50000000000000000, -12.50000000000000000, 12.50000000000000000 ) ) ;
#160 = APPROVAL_STATUS ( 'not_yet_approved' ) ;
#161 = CARTESIAN_POINT ( 'NONE',  ( 0.0000000000000000000, 0.0000000000000000000, 12.50000000000000000 ) ) ;
#162 = ORIENTED_EDGE ( 'NONE', *, *, #259, .T. ) ;
#163 = VECTOR ( 'NONE', #308, 1000.000000000000100 ) ;
#164 = LINE ( 'NONE', #14, #27 ) ;
#165 = PERSON_AND_ORGANIZATION_ROLE ( 'creator' ) ;
#166 = AXIS2_PLACEMENT_3D ( 'NONE', #284, #107, #172 ) ;
#167 = ORIENTED_EDGE ( 'NONE', *, *, #101, .T. ) ;
#168 = CALENDAR_DATE ( 2017, 6, 6 ) ;
#169 = CARTESIAN_POINT ( 'NONE',  ( -12.50000000000000000, 12.50000000000000000, 12.50000000000000000 ) ) ;
#170 = EDGE_CURVE ( 'NONE', #248, #49, #34, .T. ) ;
#171 = VECTOR ( 'NONE', #137, 1000.000000000000000 ) ;
#172 = DIRECTION ( 'NONE',  ( 1.000000000000000000, 0.0000000000000000000, 0.0000000000000000000 ) ) ;
#173 = FACE_OUTER_BOUND ( 'NONE', #25, .T. ) ;
#174 = CC_DESIGN_APPROVAL ( #156, ( #140 ) ) ;
#175 = ORIENTED_EDGE ( 'NONE', *, *, #138, .F. ) ;
#176 = CALENDAR_DATE ( 2017, 6, 6 ) ;
#177 = DIRECTION ( 'NONE',  ( -0.0000000000000000000, 0.0000000000000000000, 1.000000000000000000 ) ) ;
#178 = DIRECTION ( 'NONE',  ( 0.0000000000000000000, 1.000000000000000000, 0.0000000000000000000 ) ) ;
#179 = ORIENTED_EDGE ( 'NONE', *, *, #88, .T. ) ;
#180 = DIRECTION ( 'NONE',  ( 0.7071067811865474600, -0.7071067811865474600, 0.0000000000000000000 ) ) ;
#181 = CARTESIAN_POINT ( 'NONE',  ( 12.50000000000000000, 12.50000000000000000, 12.50000000000000000 ) ) ;
#182 = DIRECTION ( 'NONE',  ( -0.0000000000000000000, -0.0000000000000000000, -1.000000000000000000 ) ) ;
#183 = CARTESIAN_POINT ( 'NONE',  ( -12.50000000000000000, 12.50000000000000000, 12.50000000000000000 ) ) ;
#184 = EDGE_CURVE ( 'NONE', #2, #212, #230, .T. ) ;
#185 = DIRECTION ( 'NONE',  ( 0.7071067811865475700, 0.7071067811865475700, -0.0000000000000000000 ) ) ;
#186 = SECURITY_CLASSIFICATION_LEVEL ( 'unclassified' ) ;
#187 = VECTOR ( 'NONE', #285, 1000.000000000000100 ) ;
#188 = VECTOR ( 'NONE', #211, 1000.000000000000000 ) ;
#189 = CC_DESIGN_PERSON_AND_ORGANIZATION_ASSIGNMENT ( #77, #255, ( #140 ) ) ;
#190 = EDGE_LOOP ( 'NONE', ( #69, #10, #227 ) ) ;
#191 = FACE_OUTER_BOUND ( 'NONE', #74, .T. ) ;
#192 = PRODUCT ( 'Web Model 47048_47048', 'Web Model 47048_47048', '', ( #96 ) ) ;
#193 = DIRECTION ( 'NONE',  ( 1.000000000000000000, 0.0000000000000000000, 0.0000000000000000000 ) ) ;
#194 = AXIS2_PLACEMENT_3D ( 'NONE', #132, #83, #110 ) ;
#195 = LINE ( 'NONE', #219, #127 ) ;
#196 =( NAMED_UNIT ( * ) PLANE_ANGLE_UNIT ( ) SI_UNIT ( $, .RADIAN. ) );
#197 = APPLICATION_CONTEXT ( 'configuration controlled 3d designs of mechanical parts and assemblies' ) ;
#198 = ADVANCED_FACE ( 'NONE', ( #191 ), #289, .F. ) ;
#199 = CLOSED_SHELL ( 'NONE', ( #226, #307, #8, #147, #198 ) ) ;
#200 = ORGANIZATION ( 'UNSPECIFIED', 'UNSPECIFIED', '' ) ;
#201 = ORIENTED_EDGE ( 'NONE', *, *, #204, .T. ) ;
#202 = DIRECTION ( 'NONE',  ( -0.0000000000000000000, 0.0000000000000000000, 1.000000000000000000 ) ) ;
#203 = DIRECTION ( 'NONE',  ( 1.000000000000000000, 0.0000000000000000000, 0.0000000000000000000 ) ) ;
#204 = EDGE_CURVE ( 'NONE', #212, #7, #269, .T. ) ;
#205 = CARTESIAN_POINT ( 'NONE',  ( -12.50000000000000000, 0.0000000000000000000, 12.50000000000000000 ) ) ;
#206 = APPROVAL_DATE_TIME ( #90, #244 ) ;
#207 = CARTESIAN_POINT ( 'NONE',  ( -12.50000000000000000, -12.50000000000000000, 12.50000000000000000 ) ) ;
#208 = CC_DESIGN_DATE_AND_TIME_ASSIGNMENT ( #103, #209, ( #140 ) ) ;
#209 = DATE_TIME_ROLE ( 'creation_date' ) ;
#210 = DIRECTION ( 'NONE',  ( 1.000000000000000000, 0.0000000000000000000, 0.0000000000000000000 ) ) ;
#211 = DIRECTION ( 'NONE',  ( 1.000000000000000000, 0.0000000000000000000, 0.0000000000000000000 ) ) ;
#212 = VERTEX_POINT ( 'NONE', #320 ) ;
#213 = DIRECTION ( 'NONE',  ( 0.0000000000000000000, 0.0000000000000000000, 1.000000000000000000 ) ) ;
#214 = PLANE ( 'NONE',  #231 ) ;
#215 = DATE_TIME_ROLE ( 'classification_date' ) ;
#216 = LINE ( 'NONE', #207, #135 ) ;
#217 = LINE ( 'NONE', #169, #142 ) ;
#218 = LINE ( 'NONE', #61, #38 ) ;
#219 = CARTESIAN_POINT ( 'NONE',  ( -0.0000000000000000000, 12.50000000000000000, -12.50000000000000000 ) ) ;
#220 = EDGE_CURVE ( 'NONE', #57, #295, #44, .T. ) ;
#221 = PERSON_AND_ORGANIZATION ( #250, #200 ) ;
#222 = COORDINATED_UNIVERSAL_TIME_OFFSET ( 5, 0, .BEHIND. ) ;
#223 = COORDINATED_UNIVERSAL_TIME_OFFSET ( 5, 0, .BEHIND. ) ;
#224 = PRODUCT_DEFINITION_FORMATION_WITH_SPECIFIED_SOURCE ( 'ANY', '', #192, .NOT_KNOWN. ) ;
#225 = DESIGN_CONTEXT ( 'detailed design', #197, 'design' ) ;
#226 = ADVANCED_FACE ( 'NONE', ( #173 ), #60, .T. ) ;
#227 = ORIENTED_EDGE ( 'NONE', *, *, #119, .F. ) ;
#228 = EDGE_LOOP ( 'NONE', ( #272, #175, #237, #115 ) ) ;
#229 = CARTESIAN_POINT ( 'NONE',  ( 12.50000000000000000, 0.0000000000000000000, -12.50000000000000000 ) ) ;
#230 = LINE ( 'NONE', #15, #187 ) ;
#231 = AXIS2_PLACEMENT_3D ( 'NONE', #161, #177, #203 ) ;
#232 = CARTESIAN_POINT ( 'NONE',  ( -12.50000000000000000, 12.50000000000000000, 12.50000000000000000 ) ) ;
#233 = ORIENTED_EDGE ( 'NONE', *, *, #138, .T. ) ;
#234 = CARTESIAN_POINT ( 'NONE',  ( 0.0000000000000000000, -12.50000000000000000, 12.50000000000000000 ) ) ;
#235 = CARTESIAN_POINT ( 'NONE',  ( -12.50000000000000000, 12.50000000000000000, -12.50000000000000000 ) ) ;
#236 = CARTESIAN_POINT ( 'NONE',  ( 12.50000000000000000, -12.50000000000000000, 12.50000000000000000 ) ) ;
#237 = ORIENTED_EDGE ( 'NONE', *, *, #170, .F. ) ;
#238 = CARTESIAN_POINT ( 'NONE',  ( 12.50000000000000000, 0.0000000000000000000, 12.50000000000000000 ) ) ;
#239 = LOCAL_TIME ( 12, 57, 12.00000000000000000, #222 ) ;
#240 = EDGE_CURVE ( 'NONE', #54, #57, #152, .T. ) ;
#241 = ORIENTED_EDGE ( 'NONE', *, *, #53, .F. ) ;
#242 = APPROVAL_ROLE ( '' ) ;
#243 = PERSON_AND_ORGANIZATION ( #250, #200 ) ;
#244 = APPROVAL ( #160, 'UNSPECIFIED' ) ;
#245 = PLANE ( 'NONE',  #13 ) ;
#246 = DIRECTION ( 'NONE',  ( -0.0000000000000000000, -0.0000000000000000000, -1.000000000000000000 ) ) ;
#247 = ORIENTED_EDGE ( 'NONE', *, *, #220, .F. ) ;
#248 = VERTEX_POINT ( 'NONE', #67 ) ;
#249 = LOCAL_TIME ( 12, 57, 12.00000000000000000, #302 ) ;
#250 = PERSON ( 'UNSPECIFIED', 'UNSPECIFIED', 'UNSPECIFIED', ('UNSPECIFIED'), ('UNSPECIFIED'), ('UNSPECIFIED') ) ;
#251 =( NAMED_UNIT ( * ) SI_UNIT ( $, .STERADIAN. ) SOLID_ANGLE_UNIT ( ) );
#252 = VECTOR ( 'NONE', #106, 1000.000000000000000 ) ;
#253 = APPROVAL_PERSON_ORGANIZATION ( #118, #41, #242 ) ;
#254 = ADVANCED_FACE ( 'NONE', ( #299 ), #245, .F. ) ;
#255 = PERSON_AND_ORGANIZATION_ROLE ( 'creator' ) ;
#256 = DIRECTION ( 'NONE',  ( -0.0000000000000000000, 0.0000000000000000000, 1.000000000000000000 ) ) ;
#257 = EDGE_LOOP ( 'NONE', ( #201, #266, #276, #233 ) ) ;
#258 = ORIENTED_EDGE ( 'NONE', *, *, #119, .T. ) ;
#259 = EDGE_CURVE ( 'NONE', #78, #7, #104, .T. ) ;
#260 = ORIENTED_EDGE ( 'NONE', *, *, #294, .T. ) ;
#261 = PERSON_AND_ORGANIZATION ( #250, #200 ) ;
#262 = FACE_OUTER_BOUND ( 'NONE', #92, .T. ) ;
#263 = DIRECTION ( 'NONE',  ( -0.0000000000000000000, -0.0000000000000000000, -1.000000000000000000 ) ) ;
#264 = CC_DESIGN_APPROVAL ( #244, ( #224 ) ) ;
#265 = DATE_AND_TIME ( #287, #26 ) ;
#266 = ORIENTED_EDGE ( 'NONE', *, *, #259, .F. ) ;
#267 = LINE ( 'NONE', #89, #136 ) ;
#268 = DIRECTION ( 'NONE',  ( 0.0000000000000000000, 1.000000000000000000, -0.0000000000000000000 ) ) ;
#269 = LINE ( 'NONE', #229, #306 ) ;
#270 = AXIS2_PLACEMENT_3D ( 'NONE', #102, #202, #130 ) ;
#271 = ORIENTED_EDGE ( 'NONE', *, *, #275, .F. ) ;
#272 = ORIENTED_EDGE ( 'NONE', *, *, #184, .T. ) ;
#273 = DIRECTION ( 'NONE',  ( -1.000000000000000000, 0.0000000000000000000, 0.0000000000000000000 ) ) ;
#274 = CARTESIAN_POINT ( 'NONE',  ( 0.0000000000000000000, -12.50000000000000000, 12.50000000000000000 ) ) ;
#275 = EDGE_CURVE ( 'NONE', #54, #310, #216, .T. ) ;
#276 = ORIENTED_EDGE ( 'NONE', *, *, #5, .F. ) ;
#277 = DIRECTION ( 'NONE',  ( 0.0000000000000000000, 0.0000000000000000000, 1.000000000000000000 ) ) ;
#278 = UNCERTAINTY_MEASURE_WITH_UNIT (LENGTH_MEASURE( 1.000000000000000100E-005 ), #98, 'distance_accuracy_value', 'NONE');
#279 = PERSON_AND_ORGANIZATION_ROLE ( 'design_owner' ) ;
#280 = CC_DESIGN_PERSON_AND_ORGANIZATION_ASSIGNMENT ( #221, #165, ( #224 ) ) ;
#281 = VECTOR ( 'NONE', #268, 1000.000000000000000 ) ;
#282 = ORIENTED_EDGE ( 'NONE', *, *, #22, .F. ) ;
#283 = PLANE ( 'NONE',  #46 ) ;
#284 = CARTESIAN_POINT ( 'NONE',  ( 0.0000000000000000000, 0.0000000000000000000, 12.50000000000000000 ) ) ;
#285 = DIRECTION ( 'NONE',  ( 0.7071067811865474600, -0.7071067811865474600, 0.0000000000000000000 ) ) ;
#286 = ORIENTED_EDGE ( 'NONE', *, *, #294, .F. ) ;
#287 = CALENDAR_DATE ( 2017, 6, 6 ) ;
#288 = DIRECTION ( 'NONE',  ( 1.000000000000000000, 0.0000000000000000000, 0.0000000000000000000 ) ) ;
#289 = PLANE ( 'NONE',  #270 ) ;
#290 = SHAPE_DEFINITION_REPRESENTATION ( #300, #47 ) ;
#291 = CARTESIAN_POINT ( 'NONE',  ( 12.50000000000000000, 0.0000000000000000000, 12.50000000000000000 ) ) ;
#292 = CARTESIAN_POINT ( 'NONE',  ( 0.0000000000000000000, 0.0000000000000000000, 12.50000000000000000 ) ) ;
#293 = DIRECTION ( 'NONE',  ( -0.7071067811865474600, 0.7071067811865474600, 0.0000000000000000000 ) ) ;
#294 = EDGE_CURVE ( 'NONE', #2, #7, #195, .T. ) ;
#295 = VERTEX_POINT ( 'NONE', #235 ) ;
#296 = ORIENTED_EDGE ( 'NONE', *, *, #184, .F. ) ;
#297 = FACE_OUTER_BOUND ( 'NONE', #87, .T. ) ;
#298 = CC_DESIGN_PERSON_AND_ORGANIZATION_ASSIGNMENT ( #243, #23, ( #224 ) ) ;
#299 = FACE_OUTER_BOUND ( 'NONE', #18, .T. ) ;
#300 = PRODUCT_DEFINITION_SHAPE ( 'NONE', 'NONE',  #140 ) ;
#301 = CALENDAR_DATE ( 2017, 6, 6 ) ;
#302 = COORDINATED_UNIVERSAL_TIME_OFFSET ( 5, 0, .BEHIND. ) ;
#303 = APPROVAL_PERSON_ORGANIZATION ( #50, #244, #321 ) ;
#304 = AXIS2_PLACEMENT_3D ( 'NONE', #205, #273, #155 ) ;
#305 = APPROVAL_STATUS ( 'not_yet_approved' ) ;
#306 = VECTOR ( 'NONE', #314, 1000.000000000000000 ) ;
#307 = ADVANCED_FACE ( 'NONE', ( #144 ), #283, .F. ) ;
#308 = DIRECTION ( 'NONE',  ( 0.7071067811865474600, -0.7071067811865474600, 0.0000000000000000000 ) ) ;
#309 = CARTESIAN_POINT ( 'NONE',  ( -12.50000000000000000, 0.0000000000000000000, 12.50000000000000000 ) ) ;
#310 = VERTEX_POINT ( 'NONE', #151 ) ;
#311 = EDGE_CURVE ( 'NONE', #310, #295, #164, .T. ) ;
#312 = CARTESIAN_POINT ( 'NONE',  ( 0.0000000000000000000, 0.0000000000000000000, 0.0000000000000000000 ) ) ;
#313 = CARTESIAN_POINT ( 'NONE',  ( 0.0000000000000000000, 0.0000000000000000000, -12.50000000000000000 ) ) ;
#314 = DIRECTION ( 'NONE',  ( 0.0000000000000000000, 1.000000000000000000, -0.0000000000000000000 ) ) ;
#315 = DIRECTION ( 'NONE',  ( -0.0000000000000000000, -0.0000000000000000000, -1.000000000000000000 ) ) ;
#316 = SECURITY_CLASSIFICATION ( '', '', #186 ) ;
#317 = DIRECTION ( 'NONE',  ( 0.7071067811865474600, -0.7071067811865474600, 0.0000000000000000000 ) ) ;
#318 = ORIENTED_EDGE ( 'NONE', *, *, #72, .F. ) ;
#319 = DATE_AND_TIME ( #301, #239 ) ;
#320 = CARTESIAN_POINT ( 'NONE',  ( 12.50000000000000000, -12.50000000000000000, -12.50000000000000000 ) ) ;
#321 = APPROVAL_ROLE ( '' ) ;
ENDSEC;
END-ISO-10303-21;
