ISO-10303-21;
HEADER;
FILE_DESCRIPTION (( 'STEP AP203' ),
    '1' );
FILE_NAME ('Web Model 45579.STEP',
    '2017-01-31T15:18:04',
    ( '' ),
    ( '' ),
    'SwSTEP 2.0',
    'SolidWorks 2016',
    '' );
FILE_SCHEMA (( 'CONFIG_CONTROL_DESIGN' ));
ENDSEC;

DATA;
#1 = LINE ( 'NONE', #18, #142 ) ;
#2 = APPROVAL_DATE_TIME ( #81, #54 ) ;
#3 = DIRECTION ( 'NONE',  ( 0.0000000000000000000, 0.0000000000000000000, 1.000000000000000000 ) ) ;
#4 = CALENDAR_DATE ( 2017, 31, 1 ) ;
#5 = EDGE_CURVE ( 'NONE', #12, #57, #1, .T. ) ;
#6 = PERSON_AND_ORGANIZATION_ROLE ( 'creator' ) ;
#7 = VERTEX_POINT ( 'NONE', #78 ) ;
#8 = PERSON_AND_ORGANIZATION_ROLE ( 'design_owner' ) ;
#9 = PRODUCT ( 'Web Model 45579', 'Web Model 45579', '', ( #35 ) ) ;
#10 = CYLINDRICAL_SURFACE ( 'NONE', #82, 15.00000000000000000 ) ;
#11 = CC_DESIGN_APPROVAL ( #132, ( #102 ) ) ;
#12 = VERTEX_POINT ( 'NONE', #121 ) ;
#13 = CIRCLE ( 'NONE', #104, 15.00000000000000000 ) ;
#14 = CALENDAR_DATE ( 2017, 31, 1 ) ;
#15 = DIRECTION ( 'NONE',  ( 1.000000000000000000, 0.0000000000000000000, -0.0000000000000000000 ) ) ;
#16 = LOCAL_TIME ( 10, 18, 4.000000000000000000, #79 ) ;
#17 = DIRECTION ( 'NONE',  ( 1.000000000000000000, 0.0000000000000000000, -0.0000000000000000000 ) ) ;
#18 = CARTESIAN_POINT ( 'NONE',  ( -15.00000000000000000, 1.836970198721029600E-015, -4.000000000000000000 ) ) ;
#19 = ORIENTED_EDGE ( 'NONE', *, *, #146, .T. ) ;
#20 = APPROVAL_STATUS ( 'not_yet_approved' ) ;
#21 = SECURITY_CLASSIFICATION_LEVEL ( 'unclassified' ) ;
#22 = LOCAL_TIME ( 10, 18, 4.000000000000000000, #68 ) ;
#23 = ORIENTED_EDGE ( 'NONE', *, *, #123, .T. ) ;
#24 = LOCAL_TIME ( 10, 18, 4.000000000000000000, #43 ) ;
#25 = PRODUCT_DEFINITION_SHAPE ( 'NONE', 'NONE',  #102 ) ;
#26 = PERSON_AND_ORGANIZATION ( #162, #156 ) ;
#27 = FACE_OUTER_BOUND ( 'NONE', #149, .T. ) ;
#28 = DIRECTION ( 'NONE',  ( 1.000000000000000000, 0.0000000000000000000, 0.0000000000000000000 ) ) ;
#29 = APPROVAL_DATE_TIME ( #71, #92 ) ;
#30 = PLANE ( 'NONE',  #45 ) ;
#31 = CARTESIAN_POINT ( 'NONE',  ( 0.0000000000000000000, 0.0000000000000000000, 0.0000000000000000000 ) ) ;
#32 = DIRECTION ( 'NONE',  ( 0.0000000000000000000, 0.0000000000000000000, 1.000000000000000000 ) ) ;
#33 = CALENDAR_DATE ( 2017, 31, 1 ) ;
#34 = AXIS2_PLACEMENT_3D ( 'NONE', #95, #32, #124 ) ;
#35 = MECHANICAL_CONTEXT ( 'NONE', #140, 'mechanical' ) ;
#36 = CLOSED_SHELL ( 'NONE', ( #168, #42, #55, #112 ) ) ;
#37 = CIRCLE ( 'NONE', #34, 15.00000000000000000 ) ;
#38 = APPROVAL_STATUS ( 'not_yet_approved' ) ;
#39 = DATE_AND_TIME ( #174, #16 ) ;
#40 = VECTOR ( 'NONE', #158, 1000.000000000000000 ) ;
#41 = CIRCLE ( 'NONE', #69, 15.00000000000000000 ) ;
#42 = ADVANCED_FACE ( 'NONE', ( #27 ), #137, .T. ) ;
#43 = COORDINATED_UNIVERSAL_TIME_OFFSET ( 5, 0, .BEHIND. ) ;
#44 = CC_DESIGN_DATE_AND_TIME_ASSIGNMENT ( #51, #53, ( #105 ) ) ;
#45 = AXIS2_PLACEMENT_3D ( 'NONE', #64, #108, #15 ) ;
#46 = ORIENTED_EDGE ( 'NONE', *, *, #101, .F. ) ;
#47 = DIRECTION ( 'NONE',  ( 0.0000000000000000000, 0.0000000000000000000, 1.000000000000000000 ) ) ;
#48 = AXIS2_PLACEMENT_3D ( 'NONE', #94, #106, #28 ) ;
#49 = DIRECTION ( 'NONE',  ( 0.0000000000000000000, 0.0000000000000000000, 1.000000000000000000 ) ) ;
#50 = PERSON_AND_ORGANIZATION_ROLE ( 'design_supplier' ) ;
#51 = DATE_AND_TIME ( #80, #22 ) ;
#52 = EDGE_CURVE ( 'NONE', #7, #117, #76, .T. ) ;
#53 = DATE_TIME_ROLE ( 'classification_date' ) ;
#54 = APPROVAL ( #20, 'UNSPECIFIED' ) ;
#55 = ADVANCED_FACE ( 'NONE', ( #103 ), #74, .F. ) ;
#56 = PERSON_AND_ORGANIZATION ( #162, #156 ) ;
#57 = VERTEX_POINT ( 'NONE', #119 ) ;
#58 = ORIENTED_EDGE ( 'NONE', *, *, #5, .F. ) ;
#59 = EDGE_LOOP ( 'NONE', ( #115, #113, #63, #99 ) ) ;
#60 = CARTESIAN_POINT ( 'NONE',  ( 0.0000000000000000000, 0.0000000000000000000, 0.0000000000000000000 ) ) ;
#61 = DIRECTION ( 'NONE',  ( 0.0000000000000000000, 0.0000000000000000000, 1.000000000000000000 ) ) ;
#62 = ADVANCED_BREP_SHAPE_REPRESENTATION ( 'Web Model 45579', ( #67, #120 ), #111 ) ;
#63 = ORIENTED_EDGE ( 'NONE', *, *, #123, .F. ) ;
#64 = CARTESIAN_POINT ( 'NONE',  ( 0.0000000000000000000, 0.0000000000000000000, 0.0000000000000000000 ) ) ;
#65 = AXIS2_PLACEMENT_3D ( 'NONE', #87, #3, #97 ) ;
#66 = APPROVAL_ROLE ( '' ) ;
#67 = MANIFOLD_SOLID_BREP ( 'Extrude1', #36 ) ;
#68 = COORDINATED_UNIVERSAL_TIME_OFFSET ( 5, 0, .BEHIND. ) ;
#69 = AXIS2_PLACEMENT_3D ( 'NONE', #31, #47, #150 ) ;
#70 = PRODUCT_DEFINITION_FORMATION_WITH_SPECIFIED_SOURCE ( 'ANY', '', #9, .NOT_KNOWN. ) ;
#71 = DATE_AND_TIME ( #4, #129 ) ;
#72 = PERSON_AND_ORGANIZATION ( #162, #156 ) ;
#73 = PERSON_AND_ORGANIZATION ( #162, #156 ) ;
#74 = PLANE ( 'NONE',  #83 ) ;
#75 = DIRECTION ( 'NONE',  ( 0.0000000000000000000, 0.0000000000000000000, 1.000000000000000000 ) ) ;
#76 = LINE ( 'NONE', #118, #40 ) ;
#77 = CARTESIAN_POINT ( 'NONE',  ( 0.0000000000000000000, 0.0000000000000000000, -4.000000000000000000 ) ) ;
#78 = CARTESIAN_POINT ( 'NONE',  ( 15.00000000000000000, 0.0000000000000000000, -4.000000000000000000 ) ) ;
#79 = COORDINATED_UNIVERSAL_TIME_OFFSET ( 5, 0, .BEHIND. ) ;
#80 = CALENDAR_DATE ( 2017, 31, 1 ) ;
#81 = DATE_AND_TIME ( #14, #147 ) ;
#82 = AXIS2_PLACEMENT_3D ( 'NONE', #138, #122, #159 ) ;
#83 = AXIS2_PLACEMENT_3D ( 'NONE', #77, #161, #17 ) ;
#84 =( NAMED_UNIT ( * ) PLANE_ANGLE_UNIT ( ) SI_UNIT ( $, .RADIAN. ) );
#85 = PERSON_AND_ORGANIZATION ( #162, #156 ) ;
#86 = CARTESIAN_POINT ( 'NONE',  ( 15.00000000000000000, 0.0000000000000000000, 0.0000000000000000000 ) ) ;
#87 = CARTESIAN_POINT ( 'NONE',  ( 0.0000000000000000000, 0.0000000000000000000, -4.000000000000000000 ) ) ;
#88 = EDGE_LOOP ( 'NONE', ( #23, #19 ) ) ;
#89 = APPROVAL_ROLE ( '' ) ;
#90 = CC_DESIGN_DATE_AND_TIME_ASSIGNMENT ( #131, #126, ( #102 ) ) ;
#91 = APPROVAL_PERSON_ORGANIZATION ( #56, #132, #89 ) ;
#92 = APPROVAL ( #125, 'UNSPECIFIED' ) ;
#93 = ORIENTED_EDGE ( 'NONE', *, *, #101, .T. ) ;
#94 = CARTESIAN_POINT ( 'NONE',  ( 0.0000000000000000000, 0.0000000000000000000, -4.000000000000000000 ) ) ;
#95 = CARTESIAN_POINT ( 'NONE',  ( 0.0000000000000000000, 0.0000000000000000000, -4.000000000000000000 ) ) ;
#96 = UNCERTAINTY_MEASURE_WITH_UNIT (LENGTH_MEASURE( 1.000000000000000100E-005 ), #148, 'distance_accuracy_value', 'NONE');
#97 = DIRECTION ( 'NONE',  ( 1.000000000000000000, 0.0000000000000000000, 0.0000000000000000000 ) ) ;
#98 = DIRECTION ( 'NONE',  ( 1.000000000000000000, 0.0000000000000000000, 0.0000000000000000000 ) ) ;
#99 = ORIENTED_EDGE ( 'NONE', *, *, #52, .F. ) ;
#100 = CC_DESIGN_APPROVAL ( #92, ( #70 ) ) ;
#101 = EDGE_CURVE ( 'NONE', #12, #7, #37, .T. ) ;
#102 = PRODUCT_DEFINITION ( 'UNKNOWN', '', #70, #130 ) ;
#103 = FACE_OUTER_BOUND ( 'NONE', #157, .T. ) ;
#104 = AXIS2_PLACEMENT_3D ( 'NONE', #160, #49, #136 ) ;
#105 = SECURITY_CLASSIFICATION ( '', '', #21 ) ;
#106 = DIRECTION ( 'NONE',  ( 0.0000000000000000000, 0.0000000000000000000, 1.000000000000000000 ) ) ;
#107 = ORIENTED_EDGE ( 'NONE', *, *, #146, .F. ) ;
#108 = DIRECTION ( 'NONE',  ( 0.0000000000000000000, 0.0000000000000000000, 1.000000000000000000 ) ) ;
#109 = COORDINATED_UNIVERSAL_TIME_OFFSET ( 5, 0, .BEHIND. ) ;
#110 = APPLICATION_PROTOCOL_DEFINITION ( 'international standard', 'config_control_design', 1994, #140 ) ;
#111 =( GEOMETRIC_REPRESENTATION_CONTEXT ( 3 ) GLOBAL_UNCERTAINTY_ASSIGNED_CONTEXT ( ( #96 ) ) GLOBAL_UNIT_ASSIGNED_CONTEXT ( ( #148, #84, #175 ) ) REPRESENTATION_CONTEXT ( 'NONE', 'WORKASPACE' ) );
#112 = ADVANCED_FACE ( 'NONE', ( #166 ), #30, .T. ) ;
#113 = ORIENTED_EDGE ( 'NONE', *, *, #5, .T. ) ;
#114 = CC_DESIGN_PERSON_AND_ORGANIZATION_ASSIGNMENT ( #85, #164, ( #105 ) ) ;
#115 = ORIENTED_EDGE ( 'NONE', *, *, #134, .T. ) ;
#116 = PERSON_AND_ORGANIZATION ( #162, #156 ) ;
#117 = VERTEX_POINT ( 'NONE', #86 ) ;
#118 = CARTESIAN_POINT ( 'NONE',  ( 15.00000000000000000, 0.0000000000000000000, -4.000000000000000000 ) ) ;
#119 = CARTESIAN_POINT ( 'NONE',  ( -15.00000000000000000, 1.836970198721029600E-015, 0.0000000000000000000 ) ) ;
#120 = AXIS2_PLACEMENT_3D ( 'NONE', #60, #61, #98 ) ;
#121 = CARTESIAN_POINT ( 'NONE',  ( -15.00000000000000000, 1.836970198721029600E-015, -4.000000000000000000 ) ) ;
#122 = DIRECTION ( 'NONE',  ( 0.0000000000000000000, 0.0000000000000000000, 1.000000000000000000 ) ) ;
#123 = EDGE_CURVE ( 'NONE', #117, #57, #13, .T. ) ;
#124 = DIRECTION ( 'NONE',  ( 1.000000000000000000, 0.0000000000000000000, 0.0000000000000000000 ) ) ;
#125 = APPROVAL_STATUS ( 'not_yet_approved' ) ;
#126 = DATE_TIME_ROLE ( 'creation_date' ) ;
#127 = APPLICATION_PROTOCOL_DEFINITION ( 'international standard', 'config_control_design', 1994, #141 ) ;
#128 = CC_DESIGN_APPROVAL ( #54, ( #105 ) ) ;
#129 = LOCAL_TIME ( 10, 18, 4.000000000000000000, #172 ) ;
#130 = DESIGN_CONTEXT ( 'detailed design', #141, 'design' ) ;
#131 = DATE_AND_TIME ( #33, #24 ) ;
#132 = APPROVAL ( #38, 'UNSPECIFIED' ) ;
#133 = CIRCLE ( 'NONE', #65, 15.00000000000000000 ) ;
#134 = EDGE_CURVE ( 'NONE', #7, #12, #133, .T. ) ;
#135 = PERSON_AND_ORGANIZATION ( #162, #156 ) ;
#136 = DIRECTION ( 'NONE',  ( 1.000000000000000000, 0.0000000000000000000, 0.0000000000000000000 ) ) ;
#137 = CYLINDRICAL_SURFACE ( 'NONE', #48, 15.00000000000000000 ) ;
#138 = CARTESIAN_POINT ( 'NONE',  ( 0.0000000000000000000, 0.0000000000000000000, -4.000000000000000000 ) ) ;
#139 = APPROVAL_DATE_TIME ( #39, #132 ) ;
#140 = APPLICATION_CONTEXT ( 'configuration controlled 3d designs of mechanical parts and assemblies' ) ;
#141 = APPLICATION_CONTEXT ( 'configuration controlled 3d designs of mechanical parts and assemblies' ) ;
#142 = VECTOR ( 'NONE', #75, 1000.000000000000000 ) ;
#143 = CC_DESIGN_PERSON_AND_ORGANIZATION_ASSIGNMENT ( #73, #152, ( #70 ) ) ;
#144 = FACE_OUTER_BOUND ( 'NONE', #59, .T. ) ;
#145 = CC_DESIGN_SECURITY_CLASSIFICATION ( #105, ( #70 ) ) ;
#146 = EDGE_CURVE ( 'NONE', #57, #117, #41, .T. ) ;
#147 = LOCAL_TIME ( 10, 18, 4.000000000000000000, #109 ) ;
#148 =( LENGTH_UNIT ( ) NAMED_UNIT ( * ) SI_UNIT ( .MILLI., .METRE. ) );
#149 = EDGE_LOOP ( 'NONE', ( #58, #93, #170, #107 ) ) ;
#150 = DIRECTION ( 'NONE',  ( 1.000000000000000000, 0.0000000000000000000, 0.0000000000000000000 ) ) ;
#151 = APPROVAL_PERSON_ORGANIZATION ( #26, #54, #66 ) ;
#152 = PERSON_AND_ORGANIZATION_ROLE ( 'creator' ) ;
#153 = PRODUCT_RELATED_PRODUCT_CATEGORY ( 'detail', '', ( #9 ) ) ;
#154 = PERSON_AND_ORGANIZATION ( #162, #156 ) ;
#155 = CC_DESIGN_PERSON_AND_ORGANIZATION_ASSIGNMENT ( #116, #8, ( #9 ) ) ;
#156 = ORGANIZATION ( 'UNSPECIFIED', 'UNSPECIFIED', '' ) ;
#157 = EDGE_LOOP ( 'NONE', ( #171, #46 ) ) ;
#158 = DIRECTION ( 'NONE',  ( 0.0000000000000000000, 0.0000000000000000000, 1.000000000000000000 ) ) ;
#159 = DIRECTION ( 'NONE',  ( 1.000000000000000000, 0.0000000000000000000, 0.0000000000000000000 ) ) ;
#160 = CARTESIAN_POINT ( 'NONE',  ( 0.0000000000000000000, 0.0000000000000000000, 0.0000000000000000000 ) ) ;
#161 = DIRECTION ( 'NONE',  ( 0.0000000000000000000, 0.0000000000000000000, 1.000000000000000000 ) ) ;
#162 = PERSON ( 'UNSPECIFIED', 'UNSPECIFIED', 'UNSPECIFIED', ('UNSPECIFIED'), ('UNSPECIFIED'), ('UNSPECIFIED') ) ;
#163 = APPROVAL_ROLE ( '' ) ;
#164 = PERSON_AND_ORGANIZATION_ROLE ( 'classification_officer' ) ;
#165 = CC_DESIGN_PERSON_AND_ORGANIZATION_ASSIGNMENT ( #135, #50, ( #70 ) ) ;
#166 = FACE_OUTER_BOUND ( 'NONE', #88, .T. ) ;
#167 = SHAPE_DEFINITION_REPRESENTATION ( #25, #62 ) ;
#168 = ADVANCED_FACE ( 'NONE', ( #144 ), #10, .T. ) ;
#169 = APPROVAL_PERSON_ORGANIZATION ( #154, #92, #163 ) ;
#170 = ORIENTED_EDGE ( 'NONE', *, *, #52, .T. ) ;
#171 = ORIENTED_EDGE ( 'NONE', *, *, #134, .F. ) ;
#172 = COORDINATED_UNIVERSAL_TIME_OFFSET ( 5, 0, .BEHIND. ) ;
#173 = CC_DESIGN_PERSON_AND_ORGANIZATION_ASSIGNMENT ( #72, #6, ( #102 ) ) ;
#174 = CALENDAR_DATE ( 2017, 31, 1 ) ;
#175 =( NAMED_UNIT ( * ) SI_UNIT ( $, .STERADIAN. ) SOLID_ANGLE_UNIT ( ) );
ENDSEC;
END-ISO-10303-21;
