ISO-10303-21;
HEADER;
FILE_DESCRIPTION (( 'STEP AP203' ),
    '1' );
FILE_NAME ('Web Model 68526.STEP',
    '2017-02-01T13:28:00',
    ( '' ),
    ( '' ),
    'SwSTEP 2.0',
    'SolidWorks 2016',
    '' );
FILE_SCHEMA (( 'CONFIG_CONTROL_DESIGN' ));
ENDSEC;

DATA;
#1 = CARTESIAN_POINT ( 'NONE',  ( 0.0000000000000000000, 2.000000000000000000, 0.0000000000000000000 ) ) ;
#2 = DATE_AND_TIME ( #46, #113 ) ;
#3 = DIRECTION ( 'NONE',  ( 0.0000000000000000000, 0.0000000000000000000, -1.000000000000000000 ) ) ;
#4 = CC_DESIGN_SECURITY_CLASSIFICATION ( #122, ( #78 ) ) ;
#5 = PERSON_AND_ORGANIZATION_ROLE ( 'design_supplier' ) ;
#6 = LOCAL_TIME ( 8, 28, 0.0000000000000000000, #170 ) ;
#7 = CLOSED_SHELL ( 'NONE', ( #174, #148, #64, #34 ) ) ;
#8 = LOCAL_TIME ( 8, 28, 0.0000000000000000000, #47 ) ;
#9 = CC_DESIGN_DATE_AND_TIME_ASSIGNMENT ( #109, #116, ( #122 ) ) ;
#10 = CC_DESIGN_PERSON_AND_ORGANIZATION_ASSIGNMENT ( #163, #5, ( #78 ) ) ;
#11 = CARTESIAN_POINT ( 'NONE',  ( 0.0000000000000000000, 2.000000000000000000, 0.0000000000000000000 ) ) ;
#12 = CYLINDRICAL_SURFACE ( 'NONE', #117, 12.50000000000000000 ) ;
#13 = EDGE_LOOP ( 'NONE', ( #147, #60, #132, #102 ) ) ;
#14 = PRODUCT_RELATED_PRODUCT_CATEGORY ( 'detail', '', ( #21 ) ) ;
#15 = ADVANCED_BREP_SHAPE_REPRESENTATION ( 'Web Model 68526', ( #57, #38 ), #133 ) ;
#16 = CALENDAR_DATE ( 2017, 1, 2 ) ;
#17 = APPROVAL ( #167, 'UNSPECIFIED' ) ;
#18 = ORIENTED_EDGE ( 'NONE', *, *, #108, .F. ) ;
#19 = EDGE_CURVE ( 'NONE', #73, #29, #124, .T. ) ;
#20 = APPLICATION_CONTEXT ( 'configuration controlled 3d designs of mechanical parts and assemblies' ) ;
#21 = PRODUCT ( 'Web Model 68526', 'Web Model 68526', '', ( #56 ) ) ;
#22 = SHAPE_DEFINITION_REPRESENTATION ( #69, #15 ) ;
#23 = PERSON_AND_ORGANIZATION_ROLE ( 'creator' ) ;
#24 = APPROVAL_DATE_TIME ( #137, #168 ) ;
#25 = DIRECTION ( 'NONE',  ( -0.0000000000000000000, -1.000000000000000000, -0.0000000000000000000 ) ) ;
#26 = ORGANIZATION ( 'UNSPECIFIED', 'UNSPECIFIED', '' ) ;
#27 = APPROVAL ( #36, 'UNSPECIFIED' ) ;
#28 = DIRECTION ( 'NONE',  ( 0.0000000000000000000, 1.000000000000000000, 0.0000000000000000000 ) ) ;
#29 = VERTEX_POINT ( 'NONE', #95 ) ;
#30 = CC_DESIGN_APPROVAL ( #17, ( #122 ) ) ;
#31 = AXIS2_PLACEMENT_3D ( 'NONE', #1, #35, #101 ) ;
#32 = FACE_OUTER_BOUND ( 'NONE', #67, .T. ) ;
#33 = ORIENTED_EDGE ( 'NONE', *, *, #166, .F. ) ;
#34 = ADVANCED_FACE ( 'NONE', ( #32 ), #119, .F. ) ;
#35 = DIRECTION ( 'NONE',  ( 0.0000000000000000000, 1.000000000000000000, 0.0000000000000000000 ) ) ;
#36 = APPROVAL_STATUS ( 'not_yet_approved' ) ;
#37 = ORIENTED_EDGE ( 'NONE', *, *, #166, .T. ) ;
#38 = AXIS2_PLACEMENT_3D ( 'NONE', #130, #54, #100 ) ;
#39 = UNCERTAINTY_MEASURE_WITH_UNIT (LENGTH_MEASURE( 1.000000000000000100E-005 ), #91, 'distance_accuracy_value', 'NONE');
#40 = CARTESIAN_POINT ( 'NONE',  ( 0.0000000000000000000, 0.0000000000000000000, 0.0000000000000000000 ) ) ;
#41 = APPROVAL_PERSON_ORGANIZATION ( #105, #168, #154 ) ;
#42 = CARTESIAN_POINT ( 'NONE',  ( 0.0000000000000000000, 0.0000000000000000000, 0.0000000000000000000 ) ) ;
#43 = CARTESIAN_POINT ( 'NONE',  ( 0.0000000000000000000, 2.000000000000000000, 0.0000000000000000000 ) ) ;
#44 = VECTOR ( 'NONE', #145, 1000.000000000000000 ) ;
#45 = DATE_AND_TIME ( #138, #8 ) ;
#46 = CALENDAR_DATE ( 2017, 1, 2 ) ;
#47 = COORDINATED_UNIVERSAL_TIME_OFFSET ( 5, 0, .BEHIND. ) ;
#48 = CC_DESIGN_PERSON_AND_ORGANIZATION_ASSIGNMENT ( #150, #66, ( #159 ) ) ;
#49 = APPROVAL_PERSON_ORGANIZATION ( #81, #17, #51 ) ;
#50 = DIRECTION ( 'NONE',  ( -0.0000000000000000000, -1.000000000000000000, -0.0000000000000000000 ) ) ;
#51 = APPROVAL_ROLE ( '' ) ;
#52 = CIRCLE ( 'NONE', #153, 12.50000000000000000 ) ;
#53 = COORDINATED_UNIVERSAL_TIME_OFFSET ( 5, 0, .BEHIND. ) ;
#54 = DIRECTION ( 'NONE',  ( 0.0000000000000000000, 0.0000000000000000000, 1.000000000000000000 ) ) ;
#55 = PERSON ( 'UNSPECIFIED', 'UNSPECIFIED', 'UNSPECIFIED', ('UNSPECIFIED'), ('UNSPECIFIED'), ('UNSPECIFIED') ) ;
#56 = MECHANICAL_CONTEXT ( 'NONE', #90, 'mechanical' ) ;
#57 = MANIFOLD_SOLID_BREP ( 'Extrude1', #7 ) ;
#58 = CARTESIAN_POINT ( 'NONE',  ( 0.0000000000000000000, 0.0000000000000000000, 0.0000000000000000000 ) ) ;
#59 = VERTEX_POINT ( 'NONE', #106 ) ;
#60 = ORIENTED_EDGE ( 'NONE', *, *, #19, .T. ) ;
#61 = DIRECTION ( 'NONE',  ( 0.0000000000000000000, -0.0000000000000000000, 1.000000000000000000 ) ) ;
#62 = COORDINATED_UNIVERSAL_TIME_OFFSET ( 5, 0, .BEHIND. ) ;
#63 = AXIS2_PLACEMENT_3D ( 'NONE', #151, #50, #175 ) ;
#64 = ADVANCED_FACE ( 'NONE', ( #88 ), #162, .T. ) ;
#65 = PERSON_AND_ORGANIZATION ( #55, #26 ) ;
#66 = PERSON_AND_ORGANIZATION_ROLE ( 'creator' ) ;
#67 = EDGE_LOOP ( 'NONE', ( #18, #140 ) ) ;
#68 = AXIS2_PLACEMENT_3D ( 'NONE', #42, #160, #61 ) ;
#69 = PRODUCT_DEFINITION_SHAPE ( 'NONE', 'NONE',  #159 ) ;
#70 = DIRECTION ( 'NONE',  ( 0.0000000000000000000, -0.0000000000000000000, 1.000000000000000000 ) ) ;
#71 = ORIENTED_EDGE ( 'NONE', *, *, #19, .F. ) ;
#72 = ORIENTED_EDGE ( 'NONE', *, *, #108, .T. ) ;
#73 = VERTEX_POINT ( 'NONE', #121 ) ;
#74 = APPROVAL_PERSON_ORGANIZATION ( #126, #27, #165 ) ;
#75 = APPLICATION_PROTOCOL_DEFINITION ( 'international standard', 'config_control_design', 1994, #90 ) ;
#76 = PERSON_AND_ORGANIZATION_ROLE ( 'design_owner' ) ;
#77 = DIRECTION ( 'NONE',  ( 0.0000000000000000000, 0.0000000000000000000, 1.000000000000000000 ) ) ;
#78 = PRODUCT_DEFINITION_FORMATION_WITH_SPECIFIED_SOURCE ( 'ANY', '', #21, .NOT_KNOWN. ) ;
#79 = CARTESIAN_POINT ( 'NONE',  ( 0.0000000000000000000, 2.000000000000000000, -12.50000000000000000 ) ) ;
#80 = FACE_OUTER_BOUND ( 'NONE', #13, .T. ) ;
#81 = PERSON_AND_ORGANIZATION ( #55, #26 ) ;
#82 = VECTOR ( 'NONE', #25, 1000.000000000000000 ) ;
#83 = APPROVAL_DATE_TIME ( #141, #27 ) ;
#84 = AXIS2_PLACEMENT_3D ( 'NONE', #11, #28, #70 ) ;
#85 = CALENDAR_DATE ( 2017, 1, 2 ) ;
#86 = PERSON_AND_ORGANIZATION ( #55, #26 ) ;
#87 = DATE_TIME_ROLE ( 'creation_date' ) ;
#88 = FACE_OUTER_BOUND ( 'NONE', #98, .T. ) ;
#89 = PERSON_AND_ORGANIZATION_ROLE ( 'classification_officer' ) ;
#90 = APPLICATION_CONTEXT ( 'configuration controlled 3d designs of mechanical parts and assemblies' ) ;
#91 =( LENGTH_UNIT ( ) NAMED_UNIT ( * ) SI_UNIT ( .MILLI., .METRE. ) );
#92 = CC_DESIGN_APPROVAL ( #27, ( #159 ) ) ;
#93 = CARTESIAN_POINT ( 'NONE',  ( 1.530808498934191500E-015, 2.000000000000000000, 12.50000000000000000 ) ) ;
#94 = DIRECTION ( 'NONE',  ( 0.0000000000000000000, 0.0000000000000000000, 1.000000000000000000 ) ) ;
#95 = CARTESIAN_POINT ( 'NONE',  ( 1.530808498934191500E-015, 0.0000000000000000000, 12.50000000000000000 ) ) ;
#96 = CIRCLE ( 'NONE', #120, 12.50000000000000000 ) ;
#97 = CALENDAR_DATE ( 2017, 1, 2 ) ;
#98 = EDGE_LOOP ( 'NONE', ( #37, #110 ) ) ;
#99 =( NAMED_UNIT ( * ) SI_UNIT ( $, .STERADIAN. ) SOLID_ANGLE_UNIT ( ) );
#100 = DIRECTION ( 'NONE',  ( 1.000000000000000000, 0.0000000000000000000, 0.0000000000000000000 ) ) ;
#101 = DIRECTION ( 'NONE',  ( 0.0000000000000000000, 0.0000000000000000000, 1.000000000000000000 ) ) ;
#102 = ORIENTED_EDGE ( 'NONE', *, *, #123, .F. ) ;
#103 = CARTESIAN_POINT ( 'NONE',  ( 0.0000000000000000000, 2.000000000000000000, 0.0000000000000000000 ) ) ;
#104 = CC_DESIGN_APPROVAL ( #168, ( #78 ) ) ;
#105 = PERSON_AND_ORGANIZATION ( #55, #26 ) ;
#106 = CARTESIAN_POINT ( 'NONE',  ( 0.0000000000000000000, 0.0000000000000000000, -12.50000000000000000 ) ) ;
#107 = FACE_OUTER_BOUND ( 'NONE', #144, .T. ) ;
#108 = EDGE_CURVE ( 'NONE', #59, #29, #96, .T. ) ;
#109 = DATE_AND_TIME ( #85, #125 ) ;
#110 = ORIENTED_EDGE ( 'NONE', *, *, #139, .T. ) ;
#111 = DIRECTION ( 'NONE',  ( 0.0000000000000000000, 0.0000000000000000000, 1.000000000000000000 ) ) ;
#112 = CYLINDRICAL_SURFACE ( 'NONE', #63, 12.50000000000000000 ) ;
#113 = LOCAL_TIME ( 8, 28, 0.0000000000000000000, #53 ) ;
#114 = SECURITY_CLASSIFICATION_LEVEL ( 'unclassified' ) ;
#115 = CARTESIAN_POINT ( 'NONE',  ( 0.0000000000000000000, 2.000000000000000000, -12.50000000000000000 ) ) ;
#116 = DATE_TIME_ROLE ( 'classification_date' ) ;
#117 = AXIS2_PLACEMENT_3D ( 'NONE', #43, #157, #3 ) ;
#118 = LINE ( 'NONE', #79, #82 ) ;
#119 = PLANE ( 'NONE',  #68 ) ;
#120 = AXIS2_PLACEMENT_3D ( 'NONE', #40, #135, #94 ) ;
#121 = CARTESIAN_POINT ( 'NONE',  ( 1.530808498934191500E-015, 2.000000000000000000, 12.50000000000000000 ) ) ;
#122 = SECURITY_CLASSIFICATION ( '', '', #114 ) ;
#123 = EDGE_CURVE ( 'NONE', #172, #59, #118, .T. ) ;
#124 = LINE ( 'NONE', #93, #44 ) ;
#125 = LOCAL_TIME ( 8, 28, 0.0000000000000000000, #127 ) ;
#126 = PERSON_AND_ORGANIZATION ( #55, #26 ) ;
#127 = COORDINATED_UNIVERSAL_TIME_OFFSET ( 5, 0, .BEHIND. ) ;
#128 = DESIGN_CONTEXT ( 'detailed design', #20, 'design' ) ;
#129 = APPROVAL_STATUS ( 'not_yet_approved' ) ;
#130 = CARTESIAN_POINT ( 'NONE',  ( 0.0000000000000000000, 0.0000000000000000000, 0.0000000000000000000 ) ) ;
#131 =( NAMED_UNIT ( * ) PLANE_ANGLE_UNIT ( ) SI_UNIT ( $, .RADIAN. ) );
#132 = ORIENTED_EDGE ( 'NONE', *, *, #171, .T. ) ;
#133 =( GEOMETRIC_REPRESENTATION_CONTEXT ( 3 ) GLOBAL_UNCERTAINTY_ASSIGNED_CONTEXT ( ( #39 ) ) GLOBAL_UNIT_ASSIGNED_CONTEXT ( ( #91, #131, #99 ) ) REPRESENTATION_CONTEXT ( 'NONE', 'WORKASPACE' ) );
#134 = APPROVAL_DATE_TIME ( #45, #17 ) ;
#135 = DIRECTION ( 'NONE',  ( 0.0000000000000000000, 1.000000000000000000, 0.0000000000000000000 ) ) ;
#136 = CC_DESIGN_PERSON_AND_ORGANIZATION_ASSIGNMENT ( #161, #76, ( #21 ) ) ;
#137 = DATE_AND_TIME ( #97, #143 ) ;
#138 = CALENDAR_DATE ( 2017, 1, 2 ) ;
#139 = EDGE_CURVE ( 'NONE', #73, #172, #52, .T. ) ;
#140 = ORIENTED_EDGE ( 'NONE', *, *, #171, .F. ) ;
#141 = DATE_AND_TIME ( #16, #6 ) ;
#142 = APPLICATION_PROTOCOL_DEFINITION ( 'international standard', 'config_control_design', 1994, #20 ) ;
#143 = LOCAL_TIME ( 8, 28, 0.0000000000000000000, #62 ) ;
#144 = EDGE_LOOP ( 'NONE', ( #71, #33, #164, #72 ) ) ;
#145 = DIRECTION ( 'NONE',  ( -0.0000000000000000000, -1.000000000000000000, -0.0000000000000000000 ) ) ;
#146 = CC_DESIGN_PERSON_AND_ORGANIZATION_ASSIGNMENT ( #86, #89, ( #122 ) ) ;
#147 = ORIENTED_EDGE ( 'NONE', *, *, #139, .F. ) ;
#148 = ADVANCED_FACE ( 'NONE', ( #107 ), #12, .T. ) ;
#149 = CIRCLE ( 'NONE', #31, 12.50000000000000000 ) ;
#150 = PERSON_AND_ORGANIZATION ( #55, #26 ) ;
#151 = CARTESIAN_POINT ( 'NONE',  ( 0.0000000000000000000, 2.000000000000000000, 0.0000000000000000000 ) ) ;
#152 = DIRECTION ( 'NONE',  ( 0.0000000000000000000, 1.000000000000000000, 0.0000000000000000000 ) ) ;
#153 = AXIS2_PLACEMENT_3D ( 'NONE', #103, #152, #111 ) ;
#154 = APPROVAL_ROLE ( '' ) ;
#155 = AXIS2_PLACEMENT_3D ( 'NONE', #58, #169, #77 ) ;
#156 = CIRCLE ( 'NONE', #155, 12.50000000000000000 ) ;
#157 = DIRECTION ( 'NONE',  ( -0.0000000000000000000, -1.000000000000000000, -0.0000000000000000000 ) ) ;
#158 = CC_DESIGN_PERSON_AND_ORGANIZATION_ASSIGNMENT ( #65, #23, ( #78 ) ) ;
#159 = PRODUCT_DEFINITION ( 'UNKNOWN', '', #78, #128 ) ;
#160 = DIRECTION ( 'NONE',  ( 0.0000000000000000000, 1.000000000000000000, 0.0000000000000000000 ) ) ;
#161 = PERSON_AND_ORGANIZATION ( #55, #26 ) ;
#162 = PLANE ( 'NONE',  #84 ) ;
#163 = PERSON_AND_ORGANIZATION ( #55, #26 ) ;
#164 = ORIENTED_EDGE ( 'NONE', *, *, #123, .T. ) ;
#165 = APPROVAL_ROLE ( '' ) ;
#166 = EDGE_CURVE ( 'NONE', #172, #73, #149, .T. ) ;
#167 = APPROVAL_STATUS ( 'not_yet_approved' ) ;
#168 = APPROVAL ( #129, 'UNSPECIFIED' ) ;
#169 = DIRECTION ( 'NONE',  ( 0.0000000000000000000, 1.000000000000000000, 0.0000000000000000000 ) ) ;
#170 = COORDINATED_UNIVERSAL_TIME_OFFSET ( 5, 0, .BEHIND. ) ;
#171 = EDGE_CURVE ( 'NONE', #29, #59, #156, .T. ) ;
#172 = VERTEX_POINT ( 'NONE', #115 ) ;
#173 = CC_DESIGN_DATE_AND_TIME_ASSIGNMENT ( #2, #87, ( #159 ) ) ;
#174 = ADVANCED_FACE ( 'NONE', ( #80 ), #112, .T. ) ;
#175 = DIRECTION ( 'NONE',  ( 0.0000000000000000000, 0.0000000000000000000, -1.000000000000000000 ) ) ;
ENDSEC;
END-ISO-10303-21;
