ISO-10303-21;
HEADER;
FILE_DESCRIPTION (( 'STEP AP203' ),
    '1' );
FILE_NAME ('Web Model 19307_19280.step',
    '2021-08-26T17:27:14',
    ( '' ),
    ( '' ),
    'SwSTEP 2.0',
    'SolidWorks 2018',
    '' );
FILE_SCHEMA (( 'CONFIG_CONTROL_DESIGN' ));
ENDSEC;

DATA;
#1 = ORIENTED_EDGE ( 'NONE', *, *, #18, .T. ) ;
#2 = VECTOR ( 'NONE', #57, 1000.000000000000000 ) ;
#3 = FACE_BOUND ( 'NONE', #341, .T. ) ;
#4 = ORIENTED_EDGE ( 'NONE', *, *, #317, .T. ) ;
#5 = PERSON_AND_ORGANIZATION ( #125, #339 ) ;
#6 = CLOSED_SHELL ( 'NONE', ( #93, #242, #85, #336, #34, #173, #210, #141, #114, #29, #58, #272, #202 ) ) ;
#7 = ORIENTED_EDGE ( 'NONE', *, *, #123, .T. ) ;
#8 = EDGE_CURVE ( 'NONE', #148, #184, #302, .T. ) ;
#9 = CARTESIAN_POINT ( 'NONE',  ( 9.525000000000000355, 1.166476076187853627E-15, 3.180000000000000160 ) ) ;
#10 = AXIS2_PLACEMENT_3D ( 'NONE', #399, #232, #110 ) ;
#11 = DIRECTION ( 'NONE',  ( 1.000000000000000000, 0.000000000000000000, -0.000000000000000000 ) ) ;
#12 = CARTESIAN_POINT ( 'NONE',  ( -8.486100000000002197, 0.000000000000000000, 3.180000000000000160 ) ) ;
#13 = ORIENTED_EDGE ( 'NONE', *, *, #317, .F. ) ;
#14 = CARTESIAN_POINT ( 'NONE',  ( 0.000000000000000000, 0.000000000000000000, 3.180000000000000160 ) ) ;
#15 = CIRCLE ( 'NONE', #277, 0.5461000000000006960 ) ;
#16 = VERTEX_POINT ( 'NONE', #382 ) ;
#17 = CARTESIAN_POINT ( 'NONE',  ( 7.393900000000000361, 0.000000000000000000, 0.000000000000000000 ) ) ;
#18 = EDGE_CURVE ( 'NONE', #184, #169, #316, .T. ) ;
#19 = CIRCLE ( 'NONE', #252, 0.5460999999999999188 ) ;
#20 = UNCERTAINTY_MEASURE_WITH_UNIT (LENGTH_MEASURE( 1.000000000000000082E-05 ), #30, 'distance_accuracy_value', 'NONE');
#21 = DESIGN_CONTEXT ( 'detailed design', #365, 'design' ) ;
#22 = DIRECTION ( 'NONE',  ( -0.000000000000000000, -0.000000000000000000, -1.000000000000000000 ) ) ;
#23 = CARTESIAN_POINT ( 'NONE',  ( 8.486100000000002197, 6.687796170143712733E-17, 3.180000000000000160 ) ) ;
#24 = APPLICATION_PROTOCOL_DEFINITION ( 'international standard', 'config_control_design', 1994, #28 ) ;
#25 = AXIS2_PLACEMENT_3D ( 'NONE', #257, #103, #50 ) ;
#26 = ORIENTED_EDGE ( 'NONE', *, *, #139, .T. ) ;
#27 = LINE ( 'NONE', #355, #38 ) ;
#28 = APPLICATION_CONTEXT ( 'configuration controlled 3d designs of mechanical parts and assemblies' ) ;
#29 = ADVANCED_FACE ( 'NONE', ( #414 ), #183, .T. ) ;
#30 =( LENGTH_UNIT ( ) NAMED_UNIT ( * ) SI_UNIT ( .MILLI., .METRE. ) );
#31 = ORIENTED_EDGE ( 'NONE', *, *, #8, .T. ) ;
#32 = CIRCLE ( 'NONE', #136, 6.349999999999999645 ) ;
#33 = EDGE_CURVE ( 'NONE', #246, #169, #378, .T. ) ;
#34 = ADVANCED_FACE ( 'NONE', ( #182, #146, #3, #214 ), #192, .T. ) ;
#35 = AXIS2_PLACEMENT_3D ( 'NONE', #404, #203, #113 ) ;
#36 = EDGE_LOOP ( 'NONE', ( #352, #179 ) ) ;
#37 = ORIENTED_EDGE ( 'NONE', *, *, #276, .F. ) ;
#38 = VECTOR ( 'NONE', #174, 1000.000000000000000 ) ;
#39 = FACE_OUTER_BOUND ( 'NONE', #225, .T. ) ;
#40 = DATE_AND_TIME ( #84, #157 ) ;
#41 = EDGE_CURVE ( 'NONE', #86, #51, #56, .T. ) ;
#42 = FACE_OUTER_BOUND ( 'NONE', #180, .T. ) ;
#43 = DIRECTION ( 'NONE',  ( 1.000000000000000000, 0.000000000000000000, 0.000000000000000000 ) ) ;
#44 = DIRECTION ( 'NONE',  ( -1.000000000000000000, 0.000000000000000000, 0.000000000000000000 ) ) ;
#45 = LINE ( 'NONE', #76, #282 ) ;
#46 = FACE_OUTER_BOUND ( 'NONE', #389, .T. ) ;
#47 = CARTESIAN_POINT ( 'NONE',  ( 6.349999999999999645, 7.776507174585690191E-16, 0.000000000000000000 ) ) ;
#48 = PERSON_AND_ORGANIZATION ( #125, #339 ) ;
#49 = CARTESIAN_POINT ( 'NONE',  ( -6.349999999999999645, 0.000000000000000000, 3.180000000000000160 ) ) ;
#50 = DIRECTION ( 'NONE',  ( -1.000000000000000000, 0.000000000000000000, 0.000000000000000000 ) ) ;
#51 = VERTEX_POINT ( 'NONE', #287 ) ;
#52 = CARTESIAN_POINT ( 'NONE',  ( -9.524999999999998579, 0.000000000000000000, -0.002000000000000000042 ) ) ;
#53 = DIRECTION ( 'NONE',  ( -1.000000000000000000, 0.000000000000000000, 0.000000000000000000 ) ) ;
#54 = LOCAL_TIME ( 13, 27, 14.00000000000000000, #128 ) ;
#55 = CC_DESIGN_APPROVAL ( #108, ( #371 ) ) ;
#56 = LINE ( 'NONE', #73, #190 ) ;
#57 = DIRECTION ( 'NONE',  ( -0.000000000000000000, -0.000000000000000000, -1.000000000000000000 ) ) ;
#58 = ADVANCED_FACE ( 'NONE', ( #61 ), #386, .T. ) ;
#59 = AXIS2_PLACEMENT_3D ( 'NONE', #320, #315, #348 ) ;
#60 = DIRECTION ( 'NONE',  ( -0.000000000000000000, -0.000000000000000000, -1.000000000000000000 ) ) ;
#61 = FACE_OUTER_BOUND ( 'NONE', #254, .T. ) ;
#62 = APPROVAL_STATUS ( 'not_yet_approved' ) ;
#63 = ORIENTED_EDGE ( 'NONE', *, *, #290, .F. ) ;
#64 = ORIENTED_EDGE ( 'NONE', *, *, #118, .F. ) ;
#65 = PERSON_AND_ORGANIZATION ( #125, #339 ) ;
#66 = ORIENTED_EDGE ( 'NONE', *, *, #366, .T. ) ;
#67 = VERTEX_POINT ( 'NONE', #47 ) ;
#68 = CARTESIAN_POINT ( 'NONE',  ( 7.940000000000001279, 0.000000000000000000, 3.180000000000000160 ) ) ;
#69 = CC_DESIGN_PERSON_AND_ORGANIZATION_ASSIGNMENT ( #304, #208, ( #168 ) ) ;
#70 = LOCAL_TIME ( 13, 27, 14.00000000000000000, #92 ) ;
#71 = DIRECTION ( 'NONE',  ( 0.000000000000000000, 0.000000000000000000, 1.000000000000000000 ) ) ;
#72 = CC_DESIGN_PERSON_AND_ORGANIZATION_ASSIGNMENT ( #5, #300, ( #371 ) ) ;
#73 = CARTESIAN_POINT ( 'NONE',  ( -8.486100000000002197, 0.000000000000000000, 3.180000000000000160 ) ) ;
#74 = CARTESIAN_POINT ( 'NONE',  ( 0.000000000000000000, 0.000000000000000000, 3.180000000000000160 ) ) ;
#75 = ORIENTED_EDGE ( 'NONE', *, *, #400, .F. ) ;
#76 = CARTESIAN_POINT ( 'NONE',  ( 6.349999999999999645, 7.776507174585690191E-16, 3.180000000000000160 ) ) ;
#77 = CIRCLE ( 'NONE', #319, 6.349999999999999645 ) ;
#78 = CARTESIAN_POINT ( 'NONE',  ( 0.000000000000000000, 0.000000000000000000, 3.180000000000000160 ) ) ;
#79 = VERTEX_POINT ( 'NONE', #217 ) ;
#80 = EDGE_CURVE ( 'NONE', #16, #219, #278, .T. ) ;
#81 = APPROVAL_PERSON_ORGANIZATION ( #151, #230, #413 ) ;
#82 = DIRECTION ( 'NONE',  ( -0.000000000000000000, -0.000000000000000000, -1.000000000000000000 ) ) ;
#83 = CARTESIAN_POINT ( 'NONE',  ( -7.393900000000001249, 6.687796170143697942E-17, 3.180000000000000160 ) ) ;
#84 = CALENDAR_DATE ( 2021, 26, 8 ) ;
#85 = ADVANCED_FACE ( 'NONE', ( #46 ), #101, .F. ) ;
#86 = VERTEX_POINT ( 'NONE', #12 ) ;
#87 = ORIENTED_EDGE ( 'NONE', *, *, #296, .T. ) ;
#88 = VECTOR ( 'NONE', #60, 1000.000000000000000 ) ;
#89 = APPLICATION_PROTOCOL_DEFINITION ( 'international standard', 'config_control_design', 1994, #365 ) ;
#90 = DIRECTION ( 'NONE',  ( 1.000000000000000000, 0.000000000000000000, 0.000000000000000000 ) ) ;
#91 = CARTESIAN_POINT ( 'NONE',  ( -6.349999999999999645, 0.000000000000000000, 3.180000000000000160 ) ) ;
#92 = COORDINATED_UNIVERSAL_TIME_OFFSET ( 5, 0, .BEHIND. ) ;
#93 = ADVANCED_FACE ( 'NONE', ( #335 ), #235, .F. ) ;
#94 = AXIS2_PLACEMENT_3D ( 'NONE', #102, #158, #43 ) ;
#95 = ORIENTED_EDGE ( 'NONE', *, *, #276, .T. ) ;
#96 = ORIENTED_EDGE ( 'NONE', *, *, #41, .T. ) ;
#97 = AXIS2_PLACEMENT_3D ( 'NONE', #292, #394, #221 ) ;
#98 = DIRECTION ( 'NONE',  ( 1.000000000000000000, 0.000000000000000000, 0.000000000000000000 ) ) ;
#99 = DIRECTION ( 'NONE',  ( -1.000000000000000000, 0.000000000000000000, 0.000000000000000000 ) ) ;
#100 = DIRECTION ( 'NONE',  ( -0.000000000000000000, -0.000000000000000000, -1.000000000000000000 ) ) ;
#101 = CYLINDRICAL_SURFACE ( 'NONE', #415, 6.349999999999999645 ) ;
#102 = CARTESIAN_POINT ( 'NONE',  ( -7.940000000000001279, 0.000000000000000000, 3.180000000000000160 ) ) ;
#103 = DIRECTION ( 'NONE',  ( -0.000000000000000000, -0.000000000000000000, -1.000000000000000000 ) ) ;
#104 = DIRECTION ( 'NONE',  ( 1.000000000000000000, 0.000000000000000000, -0.000000000000000000 ) ) ;
#105 = VECTOR ( 'NONE', #82, 1000.000000000000000 ) ;
#106 = CARTESIAN_POINT ( 'NONE',  ( 8.486100000000002197, 6.687796170143712733E-17, 0.000000000000000000 ) ) ;
#107 = ORIENTED_EDGE ( 'NONE', *, *, #144, .T. ) ;
#108 = APPROVAL ( #298, 'UNSPECIFIED' ) ;
#109 = DIRECTION ( 'NONE',  ( 1.000000000000000000, 0.000000000000000000, 0.000000000000000000 ) ) ;
#110 = DIRECTION ( 'NONE',  ( -1.000000000000000000, 0.000000000000000000, 0.000000000000000000 ) ) ;
#111 = CC_DESIGN_PERSON_AND_ORGANIZATION_ASSIGNMENT ( #392, #211, ( #120 ) ) ;
#112 = CYLINDRICAL_SURFACE ( 'NONE', #59, 0.5461000000000006960 ) ;
#113 = DIRECTION ( 'NONE',  ( 1.000000000000000000, 0.000000000000000000, 0.000000000000000000 ) ) ;
#114 = ADVANCED_FACE ( 'NONE', ( #200 ), #112, .F. ) ;
#115 = ORIENTED_EDGE ( 'NONE', *, *, #356, .F. ) ;
#116 = FACE_OUTER_BOUND ( 'NONE', #165, .T. ) ;
#117 =( NAMED_UNIT ( * ) PLANE_ANGLE_UNIT ( ) SI_UNIT ( $, .RADIAN. ) );
#118 = EDGE_CURVE ( 'NONE', #219, #16, #77, .T. ) ;
#119 = ORIENTED_EDGE ( 'NONE', *, *, #33, .F. ) ;
#120 = SECURITY_CLASSIFICATION ( '', '', #273 ) ;
#121 = CIRCLE ( 'NONE', #159, 9.525000000000000355 ) ;
#122 = ORIENTED_EDGE ( 'NONE', *, *, #393, .F. ) ;
#123 = EDGE_CURVE ( 'NONE', #142, #160, #311, .T. ) ;
#124 = EDGE_LOOP ( 'NONE', ( #166, #265, #330, #299 ) ) ;
#125 = PERSON ( 'UNSPECIFIED', 'UNSPECIFIED', 'UNSPECIFIED', ('UNSPECIFIED'), ('UNSPECIFIED'), ('UNSPECIFIED') ) ;
#126 = PERSON_AND_ORGANIZATION ( #125, #339 ) ;
#127 = CC_DESIGN_DATE_AND_TIME_ASSIGNMENT ( #193, #367, ( #371 ) ) ;
#128 = COORDINATED_UNIVERSAL_TIME_OFFSET ( 5, 0, .BEHIND. ) ;
#129 = AXIS2_PLACEMENT_3D ( 'NONE', #68, #153, #379 ) ;
#130 = ORIENTED_EDGE ( 'NONE', *, *, #356, .T. ) ;
#131 = CARTESIAN_POINT ( 'NONE',  ( -7.940000000000001279, 0.000000000000000000, 3.180000000000000160 ) ) ;
#132 = CARTESIAN_POINT ( 'NONE',  ( 7.940000000000001279, 0.000000000000000000, 0.000000000000000000 ) ) ;
#133 = ORIENTED_EDGE ( 'NONE', *, *, #80, .F. ) ;
#134 = CC_DESIGN_APPROVAL ( #186, ( #120 ) ) ;
#135 = APPROVAL_ROLE ( '' ) ;
#136 = AXIS2_PLACEMENT_3D ( 'NONE', #258, #270, #90 ) ;
#137 = DIRECTION ( 'NONE',  ( 0.000000000000000000, 0.000000000000000000, 1.000000000000000000 ) ) ;
#138 = APPROVAL_DATE_TIME ( #40, #230 ) ;
#139 = EDGE_CURVE ( 'NONE', #86, #362, #409, .T. ) ;
#140 = ORIENTED_EDGE ( 'NONE', *, *, #296, .F. ) ;
#141 = ADVANCED_FACE ( 'NONE', ( #245 ), #185, .F. ) ;
#142 = VERTEX_POINT ( 'NONE', #224 ) ;
#143 = DATE_TIME_ROLE ( 'classification_date' ) ;
#144 = EDGE_CURVE ( 'NONE', #307, #142, #274, .T. ) ;
#145 =( GEOMETRIC_REPRESENTATION_CONTEXT ( 3 ) GLOBAL_UNCERTAINTY_ASSIGNED_CONTEXT ( ( #20 ) ) GLOBAL_UNIT_ASSIGNED_CONTEXT ( ( #30, #117, #372 ) ) REPRESENTATION_CONTEXT ( 'NONE', 'WORKASPACE' ) );
#146 = FACE_OUTER_BOUND ( 'NONE', #406, .T. ) ;
#147 = COORDINATED_UNIVERSAL_TIME_OFFSET ( 5, 0, .BEHIND. ) ;
#148 = VERTEX_POINT ( 'NONE', #23 ) ;
#149 = VECTOR ( 'NONE', #408, 1000.000000000000000 ) ;
#150 = EDGE_LOOP ( 'NONE', ( #275, #31, #1, #119 ) ) ;
#151 = PERSON_AND_ORGANIZATION ( #125, #339 ) ;
#152 = AXIS2_PLACEMENT_3D ( 'NONE', #251, #162, #98 ) ;
#153 = DIRECTION ( 'NONE',  ( 0.000000000000000000, 0.000000000000000000, 1.000000000000000000 ) ) ;
#154 = ORIENTED_EDGE ( 'NONE', *, *, #204, .F. ) ;
#155 = CARTESIAN_POINT ( 'NONE',  ( 0.000000000000000000, 0.000000000000000000, 0.000000000000000000 ) ) ;
#156 = CC_DESIGN_SECURITY_CLASSIFICATION ( #120, ( #168 ) ) ;
#157 = LOCAL_TIME ( 13, 27, 14.00000000000000000, #398 ) ;
#158 = DIRECTION ( 'NONE',  ( 0.000000000000000000, 0.000000000000000000, 1.000000000000000000 ) ) ;
#159 = AXIS2_PLACEMENT_3D ( 'NONE', #331, #337, #201 ) ;
#160 = VERTEX_POINT ( 'NONE', #52 ) ;
#161 = CIRCLE ( 'NONE', #35, 9.525000000000000355 ) ;
#162 = DIRECTION ( 'NONE',  ( 0.000000000000000000, 0.000000000000000000, 1.000000000000000000 ) ) ;
#163 = CARTESIAN_POINT ( 'NONE',  ( 0.000000000000000000, 0.000000000000000000, -0.002000000000000000042 ) ) ;
#164 = DIRECTION ( 'NONE',  ( 0.000000000000000000, 0.000000000000000000, 1.000000000000000000 ) ) ;
#165 = EDGE_LOOP ( 'NONE', ( #260, #66 ) ) ;
#166 = ORIENTED_EDGE ( 'NONE', *, *, #338, .T. ) ;
#167 = DIRECTION ( 'NONE',  ( 0.000000000000000000, 0.000000000000000000, 1.000000000000000000 ) ) ;
#168 = PRODUCT_DEFINITION_FORMATION_WITH_SPECIFIED_SOURCE ( 'ANY', '', #388, .NOT_KNOWN. ) ;
#169 = VERTEX_POINT ( 'NONE', #17 ) ;
#170 = CARTESIAN_POINT ( 'NONE',  ( 0.000000000000000000, 0.000000000000000000, 0.000000000000000000 ) ) ;
#171 = CC_DESIGN_APPROVAL ( #230, ( #168 ) ) ;
#172 = APPROVAL_STATUS ( 'not_yet_approved' ) ;
#173 = ADVANCED_FACE ( 'NONE', ( #39 ), #380, .T. ) ;
#174 = DIRECTION ( 'NONE',  ( -0.000000000000000000, -0.000000000000000000, -1.000000000000000000 ) ) ;
#175 = ORIENTED_EDGE ( 'NONE', *, *, #374, .F. ) ;
#176 = CIRCLE ( 'NONE', #401, 9.524999999999998579 ) ;
#177 = SHAPE_DEFINITION_REPRESENTATION ( #301, #178 ) ;
#178 = ADVANCED_BREP_SHAPE_REPRESENTATION ( 'Web Model 19307_19280', ( #361, #281 ), #145 ) ;
#179 = ORIENTED_EDGE ( 'NONE', *, *, #33, .T. ) ;
#180 = EDGE_LOOP ( 'NONE', ( #63, #312, #238, #227 ) ) ;
#181 = AXIS2_PLACEMENT_3D ( 'NONE', #410, #328, #334 ) ;
#182 = FACE_BOUND ( 'NONE', #397, .T. ) ;
#183 = PLANE ( 'NONE',  #188 ) ;
#184 = VERTEX_POINT ( 'NONE', #294 ) ;
#185 = CYLINDRICAL_SURFACE ( 'NONE', #236, 0.5461000000000006960 ) ;
#186 = APPROVAL ( #62, 'UNSPECIFIED' ) ;
#187 = DIRECTION ( 'NONE',  ( 1.000000000000000000, 0.000000000000000000, -0.000000000000000000 ) ) ;
#188 = AXIS2_PLACEMENT_3D ( 'NONE', #248, #384, #310 ) ;
#189 = CIRCLE ( 'NONE', #181, 6.349999999999999645 ) ;
#190 = VECTOR ( 'NONE', #100, 1000.000000000000000 ) ;
#191 = DIRECTION ( 'NONE',  ( 0.000000000000000000, 0.000000000000000000, 1.000000000000000000 ) ) ;
#192 = PLANE ( 'NONE',  #306 ) ;
#193 = DATE_AND_TIME ( #314, #239 ) ;
#194 = CIRCLE ( 'NONE', #97, 0.5460999999999999188 ) ;
#195 = CARTESIAN_POINT ( 'NONE',  ( 0.000000000000000000, 0.000000000000000000, -0.002000000000000000042 ) ) ;
#196 = DATE_AND_TIME ( #212, #54 ) ;
#197 = CARTESIAN_POINT ( 'NONE',  ( 7.940000000000001279, 0.000000000000000000, 3.180000000000000160 ) ) ;
#198 = FACE_OUTER_BOUND ( 'NONE', #324, .T. ) ;
#199 = CARTESIAN_POINT ( 'NONE',  ( -9.525000000000000355, 0.000000000000000000, 3.180000000000000160 ) ) ;
#200 = FACE_OUTER_BOUND ( 'NONE', #150, .T. ) ;
#201 = DIRECTION ( 'NONE',  ( 1.000000000000000000, 0.000000000000000000, 0.000000000000000000 ) ) ;
#202 = ADVANCED_FACE ( 'NONE', ( #241 ), #403, .F. ) ;
#203 = DIRECTION ( 'NONE',  ( 0.000000000000000000, 0.000000000000000000, 1.000000000000000000 ) ) ;
#204 = EDGE_CURVE ( 'NONE', #325, #51, #194, .T. ) ;
#205 = CYLINDRICAL_SURFACE ( 'NONE', #10, 9.525000000000000355 ) ;
#206 = DIRECTION ( 'NONE',  ( 0.000000000000000000, 0.000000000000000000, 1.000000000000000000 ) ) ;
#207 = ORIENTED_EDGE ( 'NONE', *, *, #41, .F. ) ;
#208 = PERSON_AND_ORGANIZATION_ROLE ( 'design_supplier' ) ;
#209 = ORIENTED_EDGE ( 'NONE', *, *, #290, .T. ) ;
#210 = ADVANCED_FACE ( 'NONE', ( #42 ), #407, .F. ) ;
#211 = PERSON_AND_ORGANIZATION_ROLE ( 'classification_officer' ) ;
#212 = CALENDAR_DATE ( 2021, 26, 8 ) ;
#213 = AXIS2_PLACEMENT_3D ( 'NONE', #218, #289, #318 ) ;
#214 = FACE_BOUND ( 'NONE', #412, .T. ) ;
#215 = CC_DESIGN_PERSON_AND_ORGANIZATION_ASSIGNMENT ( #65, #342, ( #168 ) ) ;
#216 = ORIENTED_EDGE ( 'NONE', *, *, #123, .F. ) ;
#217 = CARTESIAN_POINT ( 'NONE',  ( -6.349999999999999645, 0.000000000000000000, 0.000000000000000000 ) ) ;
#218 = CARTESIAN_POINT ( 'NONE',  ( 7.940000000000001279, 0.000000000000000000, 3.180000000000000160 ) ) ;
#219 = VERTEX_POINT ( 'NONE', #49 ) ;
#220 = DIRECTION ( 'NONE',  ( 0.000000000000000000, 0.000000000000000000, 1.000000000000000000 ) ) ;
#221 = DIRECTION ( 'NONE',  ( 1.000000000000000000, 0.000000000000000000, 0.000000000000000000 ) ) ;
#222 = LINE ( 'NONE', #271, #88 ) ;
#223 = EDGE_CURVE ( 'NONE', #169, #246, #15, .T. ) ;
#224 = CARTESIAN_POINT ( 'NONE',  ( 9.524999999999998579, 1.166476076187853627E-15, -0.002000000000000000042 ) ) ;
#225 = EDGE_LOOP ( 'NONE', ( #364, #115, #4, #87 ) ) ;
#226 = DIRECTION ( 'NONE',  ( -0.000000000000000000, -0.000000000000000000, -1.000000000000000000 ) ) ;
#227 = ORIENTED_EDGE ( 'NONE', *, *, #366, .F. ) ;
#228 = CARTESIAN_POINT ( 'NONE',  ( 0.000000000000000000, 0.000000000000000000, 3.180000000000000160 ) ) ;
#229 = VECTOR ( 'NONE', #313, 1000.000000000000000 ) ;
#230 = APPROVAL ( #172, 'UNSPECIFIED' ) ;
#231 = MECHANICAL_CONTEXT ( 'NONE', #28, 'mechanical' ) ;
#232 = DIRECTION ( 'NONE',  ( -0.000000000000000000, -0.000000000000000000, -1.000000000000000000 ) ) ;
#233 = CARTESIAN_POINT ( 'NONE',  ( -7.393900000000001249, 6.687796170143695477E-17, 3.180000000000000160 ) ) ;
#234 = LINE ( 'NONE', #233, #149 ) ;
#235 = CYLINDRICAL_SURFACE ( 'NONE', #213, 0.5461000000000006960 ) ;
#236 = AXIS2_PLACEMENT_3D ( 'NONE', #351, #353, #99 ) ;
#237 = DIRECTION ( 'NONE',  ( 1.000000000000000000, 0.000000000000000000, 0.000000000000000000 ) ) ;
#238 = ORIENTED_EDGE ( 'NONE', *, *, #400, .T. ) ;
#239 = LOCAL_TIME ( 13, 27, 14.00000000000000000, #147 ) ;
#240 = ORIENTED_EDGE ( 'NONE', *, *, #393, .T. ) ;
#241 = FACE_OUTER_BOUND ( 'NONE', #350, .T. ) ;
#242 = ADVANCED_FACE ( 'NONE', ( #244 ), #370, .F. ) ;
#243 = APPROVAL_PERSON_ORGANIZATION ( #48, #108, #135 ) ;
#244 = FACE_OUTER_BOUND ( 'NONE', #309, .T. ) ;
#245 = FACE_OUTER_BOUND ( 'NONE', #308, .T. ) ;
#246 = VERTEX_POINT ( 'NONE', #106 ) ;
#247 = CARTESIAN_POINT ( 'NONE',  ( 7.393900000000000361, 0.000000000000000000, 3.180000000000000160 ) ) ;
#248 = CARTESIAN_POINT ( 'NONE',  ( 0.000000000000000000, 0.000000000000000000, 0.000000000000000000 ) ) ;
#249 = CARTESIAN_POINT ( 'NONE',  ( 0.000000000000000000, 0.000000000000000000, 3.180000000000000160 ) ) ;
#250 = CARTESIAN_POINT ( 'NONE',  ( 0.000000000000000000, 0.000000000000000000, 3.180000000000000160 ) ) ;
#251 = CARTESIAN_POINT ( 'NONE',  ( 7.940000000000001279, 0.000000000000000000, 0.000000000000000000 ) ) ;
#252 = AXIS2_PLACEMENT_3D ( 'NONE', #131, #358, #109 ) ;
#253 = DIRECTION ( 'NONE',  ( 0.000000000000000000, 0.000000000000000000, 1.000000000000000000 ) ) ;
#254 = EDGE_LOOP ( 'NONE', ( #383, #346 ) ) ;
#255 = DIRECTION ( 'NONE',  ( 1.000000000000000000, 0.000000000000000000, 0.000000000000000000 ) ) ;
#256 = ORIENTED_EDGE ( 'NONE', *, *, #338, .F. ) ;
#257 = CARTESIAN_POINT ( 'NONE',  ( -7.940000000000001279, 0.000000000000000000, 3.180000000000000160 ) ) ;
#258 = CARTESIAN_POINT ( 'NONE',  ( 0.000000000000000000, 0.000000000000000000, 0.000000000000000000 ) ) ;
#259 = AXIS2_PLACEMENT_3D ( 'NONE', #228, #22, #53 ) ;
#260 = ORIENTED_EDGE ( 'NONE', *, *, #305, .T. ) ;
#261 = CARTESIAN_POINT ( 'NONE',  ( 0.000000000000000000, 0.000000000000000000, 0.000000000000000000 ) ) ;
#262 = ORIENTED_EDGE ( 'NONE', *, *, #118, .T. ) ;
#263 = DIRECTION ( 'NONE',  ( 1.000000000000000000, 0.000000000000000000, -0.000000000000000000 ) ) ;
#264 = DIRECTION ( 'NONE',  ( 0.000000000000000000, 0.000000000000000000, 1.000000000000000000 ) ) ;
#265 = ORIENTED_EDGE ( 'NONE', *, *, #381, .T. ) ;
#266 = DIRECTION ( 'NONE',  ( 1.000000000000000000, 0.000000000000000000, 0.000000000000000000 ) ) ;
#267 = ORIENTED_EDGE ( 'NONE', *, *, #411, .F. ) ;
#268 = AXIS2_PLACEMENT_3D ( 'NONE', #155, #191, #187 ) ;
#269 = PERSON_AND_ORGANIZATION_ROLE ( 'design_owner' ) ;
#270 = DIRECTION ( 'NONE',  ( 0.000000000000000000, 0.000000000000000000, 1.000000000000000000 ) ) ;
#271 = CARTESIAN_POINT ( 'NONE',  ( 8.486100000000002197, 6.687796170143707803E-17, 3.180000000000000160 ) ) ;
#272 = ADVANCED_FACE ( 'NONE', ( #116 ), #295, .T. ) ;
#273 = SECURITY_CLASSIFICATION_LEVEL ( 'unclassified' ) ;
#274 = LINE ( 'NONE', #9, #105 ) ;
#275 = ORIENTED_EDGE ( 'NONE', *, *, #381, .F. ) ;
#276 = EDGE_CURVE ( 'NONE', #362, #86, #19, .T. ) ;
#277 = AXIS2_PLACEMENT_3D ( 'NONE', #132, #164, #402 ) ;
#278 = CIRCLE ( 'NONE', #326, 6.349999999999999645 ) ;
#279 = PRODUCT_RELATED_PRODUCT_CATEGORY ( 'detail', '', ( #388 ) ) ;
#280 = APPROVAL_DATE_TIME ( #323, #108 ) ;
#281 = AXIS2_PLACEMENT_3D ( 'NONE', #170, #206, #405 ) ;
#282 = VECTOR ( 'NONE', #327, 1000.000000000000000 ) ;
#283 = ORIENTED_EDGE ( 'NONE', *, *, #139, .F. ) ;
#284 = DIRECTION ( 'NONE',  ( 0.000000000000000000, 0.000000000000000000, 1.000000000000000000 ) ) ;
#285 = COORDINATED_UNIVERSAL_TIME_OFFSET ( 5, 0, .BEHIND. ) ;
#286 = DIRECTION ( 'NONE',  ( 1.000000000000000000, 0.000000000000000000, 0.000000000000000000 ) ) ;
#287 = CARTESIAN_POINT ( 'NONE',  ( -8.486100000000002197, 0.000000000000000000, 0.000000000000000000 ) ) ;
#288 = DIRECTION ( 'NONE',  ( -0.000000000000000000, -0.000000000000000000, -1.000000000000000000 ) ) ;
#289 = DIRECTION ( 'NONE',  ( -0.000000000000000000, -0.000000000000000000, -1.000000000000000000 ) ) ;
#290 = EDGE_CURVE ( 'NONE', #16, #67, #45, .T. ) ;
#291 = CARTESIAN_POINT ( 'NONE',  ( 9.525000000000000355, 1.166476076187853627E-15, 3.180000000000000160 ) ) ;
#292 = CARTESIAN_POINT ( 'NONE',  ( -7.940000000000001279, 0.000000000000000000, 0.000000000000000000 ) ) ;
#293 = CALENDAR_DATE ( 2021, 26, 8 ) ;
#294 = CARTESIAN_POINT ( 'NONE',  ( 7.393900000000000361, 0.000000000000000000, 3.180000000000000160 ) ) ;
#295 = PLANE ( 'NONE',  #349 ) ;
#296 = EDGE_CURVE ( 'NONE', #160, #142, #176, .T. ) ;
#297 = AXIS2_PLACEMENT_3D ( 'NONE', #369, #137, #237 ) ;
#298 = APPROVAL_STATUS ( 'not_yet_approved' ) ;
#299 = ORIENTED_EDGE ( 'NONE', *, *, #18, .F. ) ;
#300 = PERSON_AND_ORGANIZATION_ROLE ( 'creator' ) ;
#301 = PRODUCT_DEFINITION_SHAPE ( 'NONE', 'NONE',  #371 ) ;
#302 = CIRCLE ( 'NONE', #129, 0.5461000000000006960 ) ;
#303 = ORIENTED_EDGE ( 'NONE', *, *, #411, .T. ) ;
#304 = PERSON_AND_ORGANIZATION ( #125, #339 ) ;
#305 = EDGE_CURVE ( 'NONE', #79, #67, #32, .T. ) ;
#306 = AXIS2_PLACEMENT_3D ( 'NONE', #14, #284, #11 ) ;
#307 = VERTEX_POINT ( 'NONE', #291 ) ;
#308 = EDGE_LOOP ( 'NONE', ( #267, #95, #96, #154 ) ) ;
#309 = EDGE_LOOP ( 'NONE', ( #26, #303, #175, #207 ) ) ;
#310 = DIRECTION ( 'NONE',  ( 1.000000000000000000, 0.000000000000000000, -0.000000000000000000 ) ) ;
#311 = CIRCLE ( 'NONE', #390, 9.524999999999998579 ) ;
#312 = ORIENTED_EDGE ( 'NONE', *, *, #80, .T. ) ;
#313 = DIRECTION ( 'NONE',  ( -0.000000000000000000, -0.000000000000000000, -1.000000000000000000 ) ) ;
#314 = CALENDAR_DATE ( 2021, 26, 8 ) ;
#315 = DIRECTION ( 'NONE',  ( -0.000000000000000000, -0.000000000000000000, -1.000000000000000000 ) ) ;
#316 = LINE ( 'NONE', #247, #229 ) ;
#317 = EDGE_CURVE ( 'NONE', #347, #160, #27, .T. ) ;
#318 = DIRECTION ( 'NONE',  ( -1.000000000000000000, 0.000000000000000000, 0.000000000000000000 ) ) ;
#319 = AXIS2_PLACEMENT_3D ( 'NONE', #250, #220, #391 ) ;
#320 = CARTESIAN_POINT ( 'NONE',  ( 7.940000000000001279, 0.000000000000000000, 3.180000000000000160 ) ) ;
#321 = ORIENTED_EDGE ( 'NONE', *, *, #305, .F. ) ;
#322 = CARTESIAN_POINT ( 'NONE',  ( -7.393900000000001249, 6.687796170143697942E-17, 0.000000000000000000 ) ) ;
#323 = DATE_AND_TIME ( #368, #70 ) ;
#324 = EDGE_LOOP ( 'NONE', ( #122, #107, #7, #13 ) ) ;
#325 = VERTEX_POINT ( 'NONE', #322 ) ;
#326 = AXIS2_PLACEMENT_3D ( 'NONE', #249, #253, #255 ) ;
#327 = DIRECTION ( 'NONE',  ( -0.000000000000000000, -0.000000000000000000, -1.000000000000000000 ) ) ;
#328 = DIRECTION ( 'NONE',  ( 0.000000000000000000, 0.000000000000000000, 1.000000000000000000 ) ) ;
#329 = PERSON_AND_ORGANIZATION ( #125, #339 ) ;
#330 = ORIENTED_EDGE ( 'NONE', *, *, #223, .F. ) ;
#331 = CARTESIAN_POINT ( 'NONE',  ( 0.000000000000000000, 0.000000000000000000, 3.180000000000000160 ) ) ;
#332 = CIRCLE ( 'NONE', #297, 0.5460999999999999188 ) ;
#333 = AXIS2_PLACEMENT_3D ( 'NONE', #78, #226, #357 ) ;
#334 = DIRECTION ( 'NONE',  ( 1.000000000000000000, 0.000000000000000000, 0.000000000000000000 ) ) ;
#335 = FACE_OUTER_BOUND ( 'NONE', #124, .T. ) ;
#336 = ADVANCED_FACE ( 'NONE', ( #198 ), #205, .T. ) ;
#337 = DIRECTION ( 'NONE',  ( 0.000000000000000000, 0.000000000000000000, 1.000000000000000000 ) ) ;
#338 = EDGE_CURVE ( 'NONE', #184, #148, #363, .T. ) ;
#339 = ORGANIZATION ( 'UNSPECIFIED', 'UNSPECIFIED', '' ) ;
#340 = DIRECTION ( 'NONE',  ( 0.000000000000000000, 0.000000000000000000, 1.000000000000000000 ) ) ;
#341 = EDGE_LOOP ( 'NONE', ( #64, #133 ) ) ;
#342 = PERSON_AND_ORGANIZATION_ROLE ( 'creator' ) ;
#343 = ORIENTED_EDGE ( 'NONE', *, *, #8, .F. ) ;
#344 = LINE ( 'NONE', #91, #2 ) ;
#345 = CC_DESIGN_PERSON_AND_ORGANIZATION_ASSIGNMENT ( #329, #269, ( #388 ) ) ;
#346 = ORIENTED_EDGE ( 'NONE', *, *, #204, .T. ) ;
#347 = VERTEX_POINT ( 'NONE', #199 ) ;
#348 = DIRECTION ( 'NONE',  ( -1.000000000000000000, 0.000000000000000000, 0.000000000000000000 ) ) ;
#349 = AXIS2_PLACEMENT_3D ( 'NONE', #261, #360, #104 ) ;
#350 = EDGE_LOOP ( 'NONE', ( #140, #216 ) ) ;
#351 = CARTESIAN_POINT ( 'NONE',  ( -7.940000000000001279, 0.000000000000000000, 3.180000000000000160 ) ) ;
#352 = ORIENTED_EDGE ( 'NONE', *, *, #223, .T. ) ;
#353 = DIRECTION ( 'NONE',  ( -0.000000000000000000, -0.000000000000000000, -1.000000000000000000 ) ) ;
#354 = AXIS2_PLACEMENT_3D ( 'NONE', #197, #340, #266 ) ;
#355 = CARTESIAN_POINT ( 'NONE',  ( -9.525000000000000355, 0.000000000000000000, 3.180000000000000160 ) ) ;
#356 = EDGE_CURVE ( 'NONE', #347, #307, #121, .T. ) ;
#357 = DIRECTION ( 'NONE',  ( -1.000000000000000000, 0.000000000000000000, 0.000000000000000000 ) ) ;
#358 = DIRECTION ( 'NONE',  ( 0.000000000000000000, 0.000000000000000000, 1.000000000000000000 ) ) ;
#359 = APPROVAL_DATE_TIME ( #395, #186 ) ;
#360 = DIRECTION ( 'NONE',  ( 0.000000000000000000, 0.000000000000000000, 1.000000000000000000 ) ) ;
#361 = MANIFOLD_SOLID_BREP ( 'Boss-Extrude2', #6 ) ;
#362 = VERTEX_POINT ( 'NONE', #83 ) ;
#363 = CIRCLE ( 'NONE', #354, 0.5461000000000006960 ) ;
#364 = ORIENTED_EDGE ( 'NONE', *, *, #144, .F. ) ;
#365 = APPLICATION_CONTEXT ( 'configuration controlled 3d designs of mechanical parts and assemblies' ) ;
#366 = EDGE_CURVE ( 'NONE', #67, #79, #189, .T. ) ;
#367 = DATE_TIME_ROLE ( 'creation_date' ) ;
#368 = CALENDAR_DATE ( 2021, 26, 8 ) ;
#369 = CARTESIAN_POINT ( 'NONE',  ( -7.940000000000001279, 0.000000000000000000, 0.000000000000000000 ) ) ;
#370 = CYLINDRICAL_SURFACE ( 'NONE', #25, 0.5461000000000006960 ) ;
#371 = PRODUCT_DEFINITION ( 'UNKNOWN', '', #168, #21 ) ;
#372 =( NAMED_UNIT ( * ) SI_UNIT ( $, .STERADIAN. ) SOLID_ANGLE_UNIT ( ) );
#373 = APPROVAL_ROLE ( '' ) ;
#374 = EDGE_CURVE ( 'NONE', #51, #325, #332, .T. ) ;
#375 = AXIS2_PLACEMENT_3D ( 'NONE', #163, #264, #263 ) ;
#376 = APPROVAL_PERSON_ORGANIZATION ( #126, #186, #373 ) ;
#377 = CC_DESIGN_DATE_AND_TIME_ASSIGNMENT ( #196, #143, ( #120 ) ) ;
#378 = CIRCLE ( 'NONE', #152, 0.5461000000000006960 ) ;
#379 = DIRECTION ( 'NONE',  ( 1.000000000000000000, 0.000000000000000000, 0.000000000000000000 ) ) ;
#380 = CYLINDRICAL_SURFACE ( 'NONE', #333, 9.525000000000000355 ) ;
#381 = EDGE_CURVE ( 'NONE', #148, #246, #222, .T. ) ;
#382 = CARTESIAN_POINT ( 'NONE',  ( 6.349999999999999645, 7.776507174585690191E-16, 3.180000000000000160 ) ) ;
#383 = ORIENTED_EDGE ( 'NONE', *, *, #374, .T. ) ;
#384 = DIRECTION ( 'NONE',  ( 0.000000000000000000, 0.000000000000000000, 1.000000000000000000 ) ) ;
#385 = LOCAL_TIME ( 13, 27, 14.00000000000000000, #285 ) ;
#386 = PLANE ( 'NONE',  #268 ) ;
#387 = CARTESIAN_POINT ( 'NONE',  ( 0.000000000000000000, 0.000000000000000000, -0.002000000000000000042 ) ) ;
#388 = PRODUCT ( 'Web Model 19307_19280', 'Web Model 19307_19280', '', ( #231 ) ) ;
#389 = EDGE_LOOP ( 'NONE', ( #262, #209, #321, #75 ) ) ;
#390 = AXIS2_PLACEMENT_3D ( 'NONE', #387, #71, #286 ) ;
#391 = DIRECTION ( 'NONE',  ( 1.000000000000000000, 0.000000000000000000, 0.000000000000000000 ) ) ;
#392 = PERSON_AND_ORGANIZATION ( #125, #339 ) ;
#393 = EDGE_CURVE ( 'NONE', #307, #347, #161, .T. ) ;
#394 = DIRECTION ( 'NONE',  ( 0.000000000000000000, 0.000000000000000000, 1.000000000000000000 ) ) ;
#395 = DATE_AND_TIME ( #293, #385 ) ;
#396 = DIRECTION ( 'NONE',  ( 1.000000000000000000, 0.000000000000000000, 0.000000000000000000 ) ) ;
#397 = EDGE_LOOP ( 'NONE', ( #283, #37 ) ) ;
#398 = COORDINATED_UNIVERSAL_TIME_OFFSET ( 5, 0, .BEHIND. ) ;
#399 = CARTESIAN_POINT ( 'NONE',  ( 0.000000000000000000, 0.000000000000000000, 3.180000000000000160 ) ) ;
#400 = EDGE_CURVE ( 'NONE', #219, #79, #344, .T. ) ;
#401 = AXIS2_PLACEMENT_3D ( 'NONE', #195, #167, #396 ) ;
#402 = DIRECTION ( 'NONE',  ( 1.000000000000000000, 0.000000000000000000, 0.000000000000000000 ) ) ;
#403 = PLANE ( 'NONE',  #375 ) ;
#404 = CARTESIAN_POINT ( 'NONE',  ( 0.000000000000000000, 0.000000000000000000, 3.180000000000000160 ) ) ;
#405 = DIRECTION ( 'NONE',  ( 1.000000000000000000, 0.000000000000000000, 0.000000000000000000 ) ) ;
#406 = EDGE_LOOP ( 'NONE', ( #130, #240 ) ) ;
#407 = CYLINDRICAL_SURFACE ( 'NONE', #259, 6.349999999999999645 ) ;
#408 = DIRECTION ( 'NONE',  ( -0.000000000000000000, -0.000000000000000000, -1.000000000000000000 ) ) ;
#409 = CIRCLE ( 'NONE', #94, 0.5460999999999999188 ) ;
#410 = CARTESIAN_POINT ( 'NONE',  ( 0.000000000000000000, 0.000000000000000000, 0.000000000000000000 ) ) ;
#411 = EDGE_CURVE ( 'NONE', #362, #325, #234, .T. ) ;
#412 = EDGE_LOOP ( 'NONE', ( #256, #343 ) ) ;
#413 = APPROVAL_ROLE ( '' ) ;
#414 = FACE_OUTER_BOUND ( 'NONE', #36, .T. ) ;
#415 = AXIS2_PLACEMENT_3D ( 'NONE', #74, #288, #44 ) ;
ENDSEC;
END-ISO-10303-21;
