ISO-10303-21;
HEADER;
FILE_DESCRIPTION (( 'STEP AP203' ),
    '1' );
FILE_NAME ('4331-E0W.STEP',
    '2015-06-17T20:47:11',
    ( 'admin' ),
    ( '' ),
    'SwSTEP 2.0',
    'SolidWorks 2014',
    '' );
FILE_SCHEMA (( 'CONFIG_CONTROL_DESIGN' ));
ENDSEC;

DATA;
#1 = DIRECTION ( 'NONE',  ( 1.000000000000000000, 0.0000000000000000000, 0.0000000000000000000 ) ) ;
#2 = FACE_OUTER_BOUND ( 'NONE', #192, .T. ) ;
#3 = PERSON_AND_ORGANIZATION_ROLE ( 'design_owner' ) ;
#4 = EDGE_CURVE ( 'NONE', #60, #332, #343, .T. ) ;
#5 = VERTEX_POINT ( 'NONE', #177 ) ;
#6 = DIRECTION ( 'NONE',  ( 0.0000000000000000000, 1.000000000000000000, 0.0000000000000000000 ) ) ;
#7 = CARTESIAN_POINT ( 'NONE',  ( -25.39999999999999900, 3.110602869834276100E-015, -1.010829345551300700 ) ) ;
#8 = APPROVAL_ROLE ( '' ) ;
#9 = CYLINDRICAL_SURFACE ( 'NONE', #273, 25.39999999999999900 ) ;
#10 = CIRCLE ( 'NONE', #364, 25.39999999999999900 ) ;
#11 = CARTESIAN_POINT ( 'NONE',  ( 25.39999999999999900, 0.0000000000000000000, -1.010829345551300700 ) ) ;
#12 = DIRECTION ( 'NONE',  ( 1.000000000000000000, 0.0000000000000000000, 0.0000000000000000000 ) ) ;
#13 = DIRECTION ( 'NONE',  ( -0.0000000000000000000, -0.0000000000000000000, 1.000000000000000000 ) ) ;
#14 = DIRECTION ( 'NONE',  ( 1.000000000000000000, 0.0000000000000000000, 0.0000000000000000000 ) ) ;
#15 = ORIENTED_EDGE ( 'NONE', *, *, #321, .F. ) ;
#16 =( LENGTH_UNIT ( ) NAMED_UNIT ( * ) SI_UNIT ( .MILLI., .METRE. ) );
#17 = AXIS2_PLACEMENT_3D ( 'NONE', #289, #246, #198 ) ;
#18 = CARTESIAN_POINT ( 'NONE',  ( 0.0000000000000000000, 0.0000000000000000000, 1.010829345551300700 ) ) ;
#19 = COORDINATED_UNIVERSAL_TIME_OFFSET ( 5, 0, .BEHIND. ) ;
#20 = CIRCLE ( 'NONE', #314, 25.18166908405494900 ) ;
#21 = EDGE_CURVE ( 'NONE', #332, #264, #139, .T. ) ;
#22 = VERTEX_POINT ( 'NONE', #201 ) ;
#23 = ORIENTED_EDGE ( 'NONE', *, *, #229, .F. ) ;
#24 = CARTESIAN_POINT ( 'NONE',  ( 0.0000000000000000000, 0.0000000000000000000, 1.380553722764646300 ) ) ;
#25 = PERSON_AND_ORGANIZATION ( #115, #313 ) ;
#26 = AXIS2_PLACEMENT_3D ( 'NONE', #267, #348, #355 ) ;
#27 = DIRECTION ( 'NONE',  ( 0.0000000000000000000, 1.000000000000000000, 0.0000000000000000000 ) ) ;
#28 = PERSON_AND_ORGANIZATION_ROLE ( 'creator' ) ;
#29 = VERTEX_POINT ( 'NONE', #365 ) ;
#30 = APPROVAL_PERSON_ORGANIZATION ( #181, #310, #8 ) ;
#31 = DIRECTION ( 'NONE',  ( -1.000000000000000000, 0.0000000000000000000, 0.0000000000000000000 ) ) ;
#32 = EDGE_CURVE ( 'NONE', #39, #358, #259, .T. ) ;
#33 = CARTESIAN_POINT ( 'NONE',  ( 0.0000000000000000000, 0.0000000000000000000, -1.010829345551300700 ) ) ;
#34 = CIRCLE ( 'NONE', #26, 25.18166908405494900 ) ;
#35 = ORIENTED_EDGE ( 'NONE', *, *, #305, .T. ) ;
#36 = APPROVAL_ROLE ( '' ) ;
#37 = LINE ( 'NONE', #325, #311 ) ;
#38 = CARTESIAN_POINT ( 'NONE',  ( 0.0000000000000000000, 0.0000000000000000000, -44.79999999999999700 ) ) ;
#39 = VERTEX_POINT ( 'NONE', #214 ) ;
#40 = APPROVAL_DATE_TIME ( #294, #310 ) ;
#41 = DIRECTION ( 'NONE',  ( 0.0000000000000000000, 0.0000000000000000000, -1.000000000000000000 ) ) ;
#42 = DIRECTION ( 'NONE',  ( 0.0000000000000000000, 0.0000000000000000000, -1.000000000000000000 ) ) ;
#43 = DIRECTION ( 'NONE',  ( -1.000000000000000000, 0.0000000000000000000, 0.0000000000000000000 ) ) ;
#44 = EDGE_CURVE ( 'NONE', #60, #169, #235, .T. ) ;
#45 = ORIENTED_EDGE ( 'NONE', *, *, #126, .T. ) ;
#46 = DIRECTION ( 'NONE',  ( 0.5084831689248438000, 0.0000000000000000000, 0.8610719290048588500 ) ) ;
#47 = VECTOR ( 'NONE', #155, 1000.000000000000000 ) ;
#48 = ORIENTED_EDGE ( 'NONE', *, *, #277, .F. ) ;
#49 = DATE_AND_TIME ( #165, #233 ) ;
#50 = CARTESIAN_POINT ( 'NONE',  ( 0.0000000000000000000, 0.0000000000000000000, -1.010829345551300700 ) ) ;
#51 = CARTESIAN_POINT ( 'NONE',  ( 0.0000000000000000000, 0.0000000000000000000, 44.79999999999999700 ) ) ;
#52 = EDGE_CURVE ( 'NONE', #264, #22, #279, .T. ) ;
#53 = PERSON_AND_ORGANIZATION_ROLE ( 'creator' ) ;
#54 = AXIS2_PLACEMENT_3D ( 'NONE', #231, #255, #362 ) ;
#55 = CARTESIAN_POINT ( 'NONE',  ( 0.0000000000000000000, 0.0000000000000000000, -1.380553722764639400 ) ) ;
#56 = DESIGN_CONTEXT ( 'detailed design', #308, 'design' ) ;
#57 = DIRECTION ( 'NONE',  ( 1.000000000000000000, 0.0000000000000000000, 0.0000000000000000000 ) ) ;
#58 = ORIENTED_EDGE ( 'NONE', *, *, #32, .F. ) ;
#59 = PERSON_AND_ORGANIZATION ( #115, #313 ) ;
#60 = VERTEX_POINT ( 'NONE', #319 ) ;
#61 = COORDINATED_UNIVERSAL_TIME_OFFSET ( 5, 0, .BEHIND. ) ;
#62 = APPROVAL_STATUS ( 'not_yet_approved' ) ;
#63 = CARTESIAN_POINT ( 'NONE',  ( 0.0000000000000000000, 0.0000000000000000000, 44.79999999999999700 ) ) ;
#64 = DIRECTION ( 'NONE',  ( 0.0000000000000000000, 1.000000000000000000, 0.0000000000000000000 ) ) ;
#65 = ORIENTED_EDGE ( 'NONE', *, *, #44, .T. ) ;
#66 = CALENDAR_DATE ( 2015, 17, 6 ) ;
#67 = EDGE_CURVE ( 'NONE', #39, #169, #357, .T. ) ;
#68 = APPROVAL_PERSON_ORGANIZATION ( #145, #188, #36 ) ;
#69 = ADVANCED_FACE ( 'NONE', ( #107 ), #366, .T. ) ;
#70 = ORIENTED_EDGE ( 'NONE', *, *, #338, .T. ) ;
#71 = ADVANCED_FACE ( 'NONE', ( #99 ), #127, .T. ) ;
#72 = CARTESIAN_POINT ( 'NONE',  ( 25.18166908405494900, 3.097233956965925900E-015, 1.380553722764625600 ) ) ;
#73 = DIRECTION ( 'NONE',  ( 0.0000000000000000000, 0.0000000000000000000, -1.000000000000000000 ) ) ;
#74 = EDGE_CURVE ( 'NONE', #5, #317, #287, .T. ) ;
#75 = CC_DESIGN_PERSON_AND_ORGANIZATION_ASSIGNMENT ( #318, #28, ( #79 ) ) ;
#76 = CIRCLE ( 'NONE', #135, 52.60000000000000100 ) ;
#77 = EDGE_CURVE ( 'NONE', #317, #141, #103, .T. ) ;
#78 = MECHANICAL_CONTEXT ( 'NONE', #244, 'mechanical' ) ;
#79 = PRODUCT_DEFINITION ( 'UNKNOWN', '', #186, #56 ) ;
#80 = VERTEX_POINT ( 'NONE', #166 ) ;
#81 = APPROVAL ( #62, 'UNSPECIFIED' ) ;
#82 = CC_DESIGN_PERSON_AND_ORGANIZATION_ASSIGNMENT ( #262, #53, ( #186 ) ) ;
#83 = LINE ( 'NONE', #224, #350 ) ;
#84 = LOCAL_TIME ( 16, 47, 11.00000000000000000, #132 ) ;
#85 = ORIENTED_EDGE ( 'NONE', *, *, #199, .T. ) ;
#86 = DIRECTION ( 'NONE',  ( 1.000000000000000000, 0.0000000000000000000, 0.0000000000000000000 ) ) ;
#87 = AXIS2_PLACEMENT_3D ( 'NONE', #363, #290, #222 ) ;
#88 = DIRECTION ( 'NONE',  ( -1.000000000000000000, 0.0000000000000000000, 0.0000000000000000000 ) ) ;
#89 = APPROVAL_STATUS ( 'not_yet_approved' ) ;
#90 = VECTOR ( 'NONE', #284, 1000.000000000000000 ) ;
#91 = CIRCLE ( 'NONE', #130, 52.60000000000000100 ) ;
#92 = CLOSED_SHELL ( 'NONE', ( #69, #272, #100, #337, #173, #300, #174, #71, #200, #301 ) ) ;
#93 = SPHERICAL_SURFACE ( 'NONE', #54, 52.60000000000000100 ) ;
#94 = VERTEX_POINT ( 'NONE', #72 ) ;
#95 = CARTESIAN_POINT ( 'NONE',  ( 0.0000000000000000000, 3.220821081757538700E-015, -7.800000000000001600 ) ) ;
#96 = AXIS2_PLACEMENT_3D ( 'NONE', #185, #260, #171 ) ;
#97 = DIRECTION ( 'NONE',  ( -0.0000000000000000000, -0.0000000000000000000, 1.000000000000000000 ) ) ;
#98 = CARTESIAN_POINT ( 'NONE',  ( 0.0000000000000000000, 0.0000000000000000000, -44.79999999999999700 ) ) ;
#99 = FACE_OUTER_BOUND ( 'NONE', #253, .T. ) ;
#100 = ADVANCED_FACE ( 'NONE', ( #2 ), #93, .T. ) ;
#101 = ORIENTED_EDGE ( 'NONE', *, *, #217, .T. ) ;
#102 = CC_DESIGN_APPROVAL ( #310, ( #79 ) ) ;
#103 = CIRCLE ( 'NONE', #349, 25.18166908405494900 ) ;
#104 = ORIENTED_EDGE ( 'NONE', *, *, #330, .T. ) ;
#105 = AXIS2_PLACEMENT_3D ( 'NONE', #38, #327, #6 ) ;
#106 = DIRECTION ( 'NONE',  ( 1.000000000000000000, 0.0000000000000000000, 0.0000000000000000000 ) ) ;
#107 = FACE_OUTER_BOUND ( 'NONE', #153, .T. ) ;
#108 = ORIENTED_EDGE ( 'NONE', *, *, #4, .F. ) ;
#109 = ORIENTED_EDGE ( 'NONE', *, *, #297, .T. ) ;
#110 = AXIS2_PLACEMENT_3D ( 'NONE', #50, #13, #12 ) ;
#111 = CARTESIAN_POINT ( 'NONE',  ( -25.39999999999999900, 3.110602869834276900E-015, 7.799999999999999800 ) ) ;
#112 = DIRECTION ( 'NONE',  ( -0.0000000000000000000, -0.0000000000000000000, 1.000000000000000000 ) ) ;
#113 = COORDINATED_UNIVERSAL_TIME_OFFSET ( 5, 0, .BEHIND. ) ;
#114 = CARTESIAN_POINT ( 'NONE',  ( 25.39999999999999900, 0.0000000000000000000, 1.010829345551300700 ) ) ;
#115 = PERSON ( 'UNSPECIFIED', 'UNSPECIFIED', 'UNSPECIFIED', ('UNSPECIFIED'), ('UNSPECIFIED'), ('UNSPECIFIED') ) ;
#116 = CARTESIAN_POINT ( 'NONE',  ( 0.0000000000000000000, 0.0000000000000000000, -1.380553722764639400 ) ) ;
#117 = ORIENTED_EDGE ( 'NONE', *, *, #277, .T. ) ;
#118 = AXIS2_PLACEMENT_3D ( 'NONE', #116, #257, #106 ) ;
#119 = DIRECTION ( 'NONE',  ( 1.000000000000000000, 0.0000000000000000000, 0.0000000000000000000 ) ) ;
#120 = ORIENTED_EDGE ( 'NONE', *, *, #52, .F. ) ;
#121 = ORIENTED_EDGE ( 'NONE', *, *, #321, .T. ) ;
#122 = CARTESIAN_POINT ( 'NONE',  ( 0.0000000000000000000, 0.0000000000000000000, 1.010829345551300700 ) ) ;
#123 = DIRECTION ( 'NONE',  ( 1.000000000000000000, 0.0000000000000000000, 0.0000000000000000000 ) ) ;
#124 = FACE_OUTER_BOUND ( 'NONE', #149, .T. ) ;
#125 = ORIENTED_EDGE ( 'NONE', *, *, #229, .T. ) ;
#126 = EDGE_CURVE ( 'NONE', #358, #80, #10, .T. ) ;
#127 = SPHERICAL_SURFACE ( 'NONE', #342, 52.60000000000000100 ) ;
#128 = ORIENTED_EDGE ( 'NONE', *, *, #52, .T. ) ;
#129 = CC_DESIGN_PERSON_AND_ORGANIZATION_ASSIGNMENT ( #59, #328, ( #186 ) ) ;
#130 = AXIS2_PLACEMENT_3D ( 'NONE', #51, #156, #333 ) ;
#131 = DIRECTION ( 'NONE',  ( 1.000000000000000000, 0.0000000000000000000, 0.0000000000000000000 ) ) ;
#132 = COORDINATED_UNIVERSAL_TIME_OFFSET ( 5, 0, .BEHIND. ) ;
#133 = CC_DESIGN_DATE_AND_TIME_ASSIGNMENT ( #49, #351, ( #79 ) ) ;
#134 = CARTESIAN_POINT ( 'NONE',  ( 0.0000000000000000000, 0.0000000000000000000, 1.380553722764625600 ) ) ;
#135 = AXIS2_PLACEMENT_3D ( 'NONE', #232, #57, #203 ) ;
#136 = ADVANCED_BREP_SHAPE_REPRESENTATION ( '4331-E0W', ( #160, #320 ), #205 ) ;
#137 = CIRCLE ( 'NONE', #356, 25.18166908405494600 ) ;
#138 = EDGE_LOOP ( 'NONE', ( #238, #104, #121, #101 ) ) ;
#139 = CIRCLE ( 'NONE', #142, 25.18166908405494600 ) ;
#140 = VECTOR ( 'NONE', #46, 1000.000000000000200 ) ;
#141 = VERTEX_POINT ( 'NONE', #220 ) ;
#142 = AXIS2_PLACEMENT_3D ( 'NONE', #197, #353, #123 ) ;
#143 = DIRECTION ( 'NONE',  ( -1.000000000000000000, 0.0000000000000000000, 0.0000000000000000000 ) ) ;
#144 = PRODUCT_DEFINITION_SHAPE ( 'NONE', 'NONE',  #79 ) ;
#145 = PERSON_AND_ORGANIZATION ( #115, #313 ) ;
#146 = ORIENTED_EDGE ( 'NONE', *, *, #4, .T. ) ;
#147 = DIRECTION ( 'NONE',  ( 0.5084831689248378000, 6.227122852441054400E-017, -0.8610719290048624000 ) ) ;
#148 = FACE_OUTER_BOUND ( 'NONE', #215, .T. ) ;
#149 = EDGE_LOOP ( 'NONE', ( #178, #125, #202, #45 ) ) ;
#150 = DIRECTION ( 'NONE',  ( 1.000000000000000000, 0.0000000000000000000, 0.0000000000000000000 ) ) ;
#151 = DATE_AND_TIME ( #189, #278 ) ;
#152 = AXIS2_PLACEMENT_3D ( 'NONE', #252, #41, #150 ) ;
#153 = EDGE_LOOP ( 'NONE', ( #15, #35, #271, #240, #288 ) ) ;
#154 = SPHERICAL_SURFACE ( 'NONE', #159, 52.60000000000000100 ) ;
#155 = DIRECTION ( 'NONE',  ( -0.0000000000000000000, -0.0000000000000000000, 1.000000000000000000 ) ) ;
#156 = DIRECTION ( 'NONE',  ( -1.000000000000000000, 1.224646799147353200E-016, 0.0000000000000000000 ) ) ;
#157 = DIRECTION ( 'NONE',  ( 0.0000000000000000000, 0.0000000000000000000, 1.000000000000000000 ) ) ;
#158 = ORIENTED_EDGE ( 'NONE', *, *, #77, .T. ) ;
#159 = AXIS2_PLACEMENT_3D ( 'NONE', #347, #334, #64 ) ;
#160 = MANIFOLD_SOLID_BREP ( '4331-001-1-solid1', #92 ) ;
#161 = ORIENTED_EDGE ( 'NONE', *, *, #283, .F. ) ;
#162 = SPHERICAL_SURFACE ( 'NONE', #105, 52.60000000000000100 ) ;
#163 = CONICAL_SURFACE ( 'NONE', #96, 25.39999999999999900, 0.5334223107790447800 ) ;
#164 = EDGE_LOOP ( 'NONE', ( #194, #341, #180, #268, #236 ) ) ;
#165 = CALENDAR_DATE ( 2015, 17, 6 ) ;
#166 = CARTESIAN_POINT ( 'NONE',  ( -25.39999999999999900, 3.110602869834276900E-015, 1.010829345551300700 ) ) ;
#167 = VERTEX_POINT ( 'NONE', #95 ) ;
#168 = DIRECTION ( 'NONE',  ( -1.000000000000000000, 1.224646799147353200E-016, 0.0000000000000000000 ) ) ;
#169 = VERTEX_POINT ( 'NONE', #228 ) ;
#170 = DATE_AND_TIME ( #66, #84 ) ;
#171 = DIRECTION ( 'NONE',  ( 1.000000000000000000, 0.0000000000000000000, 0.0000000000000000000 ) ) ;
#172 = AXIS2_PLACEMENT_3D ( 'NONE', #134, #237, #88 ) ;
#173 = ADVANCED_FACE ( 'NONE', ( #339 ), #154, .T. ) ;
#174 = ADVANCED_FACE ( 'NONE', ( #124 ), #261, .T. ) ;
#175 = CARTESIAN_POINT ( 'NONE',  ( 0.0000000000000000000, 0.0000000000000000000, 44.79999999999999700 ) ) ;
#176 = CONICAL_SURFACE ( 'NONE', #17, 25.39999999999999900, 0.5334223107790447800 ) ;
#177 = CARTESIAN_POINT ( 'NONE',  ( 0.0000000000000000000, 25.18166908405496300, 1.380553722764629000 ) ) ;
#178 = ORIENTED_EDGE ( 'NONE', *, *, #338, .F. ) ;
#179 = DIRECTION ( 'NONE',  ( -1.224646799147353000E-016, -1.000000000000000000, 0.0000000000000000000 ) ) ;
#180 = ORIENTED_EDGE ( 'NONE', *, *, #77, .F. ) ;
#181 = PERSON_AND_ORGANIZATION ( #115, #313 ) ;
#182 = ORIENTED_EDGE ( 'NONE', *, *, #297, .F. ) ;
#183 = CARTESIAN_POINT ( 'NONE',  ( 0.0000000000000000000, 0.0000000000000000000, 1.380553722764625600 ) ) ;
#184 = FACE_OUTER_BOUND ( 'NONE', #209, .T. ) ;
#185 = CARTESIAN_POINT ( 'NONE',  ( 0.0000000000000000000, 0.0000000000000000000, -1.010829345551300700 ) ) ;
#186 = PRODUCT_DEFINITION_FORMATION_WITH_SPECIFIED_SOURCE ( 'ANY', '', #258, .NOT_KNOWN. ) ;
#187 = AXIS2_PLACEMENT_3D ( 'NONE', #24, #346, #31 ) ;
#188 = APPROVAL ( #296, 'UNSPECIFIED' ) ;
#189 = CALENDAR_DATE ( 2015, 17, 6 ) ;
#190 = AXIS2_PLACEMENT_3D ( 'NONE', #63, #1, #73 ) ;
#191 = FACE_OUTER_BOUND ( 'NONE', #138, .T. ) ;
#192 = EDGE_LOOP ( 'NONE', ( #182, #85, #270, #146 ) ) ;
#193 = EDGE_LOOP ( 'NONE', ( #230, #158, #331, #256 ) ) ;
#194 = ORIENTED_EDGE ( 'NONE', *, *, #305, .F. ) ;
#195 = AXIS2_PLACEMENT_3D ( 'NONE', #196, #360, #281 ) ;
#196 = CARTESIAN_POINT ( 'NONE',  ( 0.0000000000000000000, 0.0000000000000000000, 1.380553722764646300 ) ) ;
#197 = CARTESIAN_POINT ( 'NONE',  ( 0.0000000000000000000, 0.0000000000000000000, -1.380553722764639400 ) ) ;
#198 = DIRECTION ( 'NONE',  ( 1.000000000000000000, 0.0000000000000000000, 0.0000000000000000000 ) ) ;
#199 = EDGE_CURVE ( 'NONE', #167, #22, #91, .T. ) ;
#200 = ADVANCED_FACE ( 'NONE', ( #148 ), #163, .T. ) ;
#201 = CARTESIAN_POINT ( 'NONE',  ( -3.083865044097576100E-015, -25.18166908405495300, -1.380553722764639400 ) ) ;
#202 = ORIENTED_EDGE ( 'NONE', *, *, #32, .T. ) ;
#203 = DIRECTION ( 'NONE',  ( 0.0000000000000000000, 0.0000000000000000000, -1.000000000000000000 ) ) ;
#204 = DATE_TIME_ROLE ( 'classification_date' ) ;
#205 =( GEOMETRIC_REPRESENTATION_CONTEXT ( 3 ) GLOBAL_UNCERTAINTY_ASSIGNED_CONTEXT ( ( #282 ) ) GLOBAL_UNIT_ASSIGNED_CONTEXT ( ( #16, #269, #361 ) ) REPRESENTATION_CONTEXT ( 'NONE', 'WORKASPACE' ) );
#206 = CARTESIAN_POINT ( 'NONE',  ( 0.0000000000000000000, 25.18166908405495300, -1.380553722764639400 ) ) ;
#207 = SECURITY_CLASSIFICATION_LEVEL ( 'unclassified' ) ;
#208 = AXIS2_PLACEMENT_3D ( 'NONE', #98, #168, #179 ) ;
#209 = EDGE_LOOP ( 'NONE', ( #276, #70, #315, #58 ) ) ;
#210 = APPROVAL_PERSON_ORGANIZATION ( #307, #81, #218 ) ;
#211 = PERSON_AND_ORGANIZATION_ROLE ( 'classification_officer' ) ;
#212 = DIRECTION ( 'NONE',  ( -1.000000000000000000, 0.0000000000000000000, 0.0000000000000000000 ) ) ;
#213 = CARTESIAN_POINT ( 'NONE',  ( 0.0000000000000000000, 0.0000000000000000000, 1.380553722764625600 ) ) ;
#214 = CARTESIAN_POINT ( 'NONE',  ( 25.39999999999999900, 0.0000000000000000000, -1.010829345551300700 ) ) ;
#215 = EDGE_LOOP ( 'NONE', ( #223, #161, #120, #117, #23 ) ) ;
#216 = DIRECTION ( 'NONE',  ( -0.0000000000000000000, -0.0000000000000000000, 1.000000000000000000 ) ) ;
#217 = EDGE_CURVE ( 'NONE', #5, #29, #76, .T. ) ;
#218 = APPROVAL_ROLE ( '' ) ;
#219 = CALENDAR_DATE ( 2015, 17, 6 ) ;
#220 = CARTESIAN_POINT ( 'NONE',  ( -3.083865044097577300E-015, -25.18166908405496300, 1.380553722764629000 ) ) ;
#221 = CIRCLE ( 'NONE', #190, 52.60000000000000100 ) ;
#222 = DIRECTION ( 'NONE',  ( 1.000000000000000000, 0.0000000000000000000, 0.0000000000000000000 ) ) ;
#223 = ORIENTED_EDGE ( 'NONE', *, *, #44, .F. ) ;
#224 = CARTESIAN_POINT ( 'NONE',  ( -25.18166908405494600, 0.0000000000000000000, 1.380553722764646300 ) ) ;
#225 = CIRCLE ( 'NONE', #263, 25.39999999999999900 ) ;
#226 = APPROVAL_DATE_TIME ( #170, #81 ) ;
#227 = APPLICATION_PROTOCOL_DEFINITION ( 'international standard', 'config_control_design', 1994, #308 ) ;
#228 = CARTESIAN_POINT ( 'NONE',  ( -25.39999999999999900, 3.110602869834276900E-015, -1.010829345551300700 ) ) ;
#229 = EDGE_CURVE ( 'NONE', #169, #39, #225, .T. ) ;
#230 = ORIENTED_EDGE ( 'NONE', *, *, #74, .T. ) ;
#231 = CARTESIAN_POINT ( 'NONE',  ( 0.0000000000000000000, 0.0000000000000000000, 44.79999999999999700 ) ) ;
#232 = CARTESIAN_POINT ( 'NONE',  ( 0.0000000000000000000, 0.0000000000000000000, -44.79999999999999700 ) ) ;
#233 = LOCAL_TIME ( 16, 47, 11.00000000000000000, #19 ) ;
#234 = EDGE_CURVE ( 'NONE', #317, #80, #83, .T. ) ;
#235 = LINE ( 'NONE', #7, #345 ) ;
#236 = ORIENTED_EDGE ( 'NONE', *, *, #126, .F. ) ;
#237 = DIRECTION ( 'NONE',  ( -0.0000000000000000000, -0.0000000000000000000, 1.000000000000000000 ) ) ;
#238 = ORIENTED_EDGE ( 'NONE', *, *, #354, .F. ) ;
#239 = CARTESIAN_POINT ( 'NONE',  ( 25.18166908405494600, 0.0000000000000000000, -1.380553722764639400 ) ) ;
#240 = ORIENTED_EDGE ( 'NONE', *, *, #234, .F. ) ;
#241 = CC_DESIGN_DATE_AND_TIME_ASSIGNMENT ( #151, #204, ( #248 ) ) ;
#242 = DIRECTION ( 'NONE',  ( 0.0000000000000000000, 0.0000000000000000000, -1.000000000000000000 ) ) ;
#243 = LINE ( 'NONE', #11, #140 ) ;
#244 = APPLICATION_CONTEXT ( 'configuration controlled 3d designs of mechanical parts and assemblies' ) ;
#245 = AXIS2_PLACEMENT_3D ( 'NONE', #122, #42, #43 ) ;
#246 = DIRECTION ( 'NONE',  ( -0.0000000000000000000, -0.0000000000000000000, 1.000000000000000000 ) ) ;
#247 = CARTESIAN_POINT ( 'NONE',  ( -25.18166908405494900, 0.0000000000000000000, 1.380553722764625600 ) ) ;
#248 = SECURITY_CLASSIFICATION ( '', '', #207 ) ;
#249 = CARTESIAN_POINT ( 'NONE',  ( 0.0000000000000000000, 0.0000000000000000000, 0.0000000000000000000 ) ) ;
#250 = DIRECTION ( 'NONE',  ( -0.5084831689248378000, 0.0000000000000000000, -0.8610719290048624000 ) ) ;
#251 = EDGE_CURVE ( 'NONE', #80, #358, #266, .T. ) ;
#252 = CARTESIAN_POINT ( 'NONE',  ( 0.0000000000000000000, 0.0000000000000000000, -1.380553722764639400 ) ) ;
#253 = EDGE_LOOP ( 'NONE', ( #306, #109, #323, #128 ) ) ;
#254 = DIRECTION ( 'NONE',  ( -0.5084831689248438000, 6.227122852441127100E-017, 0.8610719290048588500 ) ) ;
#255 = DIRECTION ( 'NONE',  ( -1.000000000000000000, 0.0000000000000000000, 0.0000000000000000000 ) ) ;
#256 = ORIENTED_EDGE ( 'NONE', *, *, #217, .F. ) ;
#257 = DIRECTION ( 'NONE',  ( 0.0000000000000000000, 0.0000000000000000000, -1.000000000000000000 ) ) ;
#258 = PRODUCT ( '4331-E0W', '4331-E0W', '', ( #78 ) ) ;
#259 = LINE ( 'NONE', #329, #47 ) ;
#260 = DIRECTION ( 'NONE',  ( -0.0000000000000000000, -0.0000000000000000000, 1.000000000000000000 ) ) ;
#261 = CYLINDRICAL_SURFACE ( 'NONE', #87, 25.39999999999999900 ) ;
#262 = PERSON_AND_ORGANIZATION ( #115, #313 ) ;
#263 = AXIS2_PLACEMENT_3D ( 'NONE', #33, #97, #86 ) ;
#264 = VERTEX_POINT ( 'NONE', #239 ) ;
#265 = CIRCLE ( 'NONE', #208, 52.60000000000000100 ) ;
#266 = CIRCLE ( 'NONE', #245, 25.39999999999999900 ) ;
#267 = CARTESIAN_POINT ( 'NONE',  ( 0.0000000000000000000, 0.0000000000000000000, 1.380553722764625600 ) ) ;
#268 = ORIENTED_EDGE ( 'NONE', *, *, #234, .T. ) ;
#269 =( NAMED_UNIT ( * ) PLANE_ANGLE_UNIT ( ) SI_UNIT ( $, .RADIAN. ) );
#270 = ORIENTED_EDGE ( 'NONE', *, *, #283, .T. ) ;
#271 = ORIENTED_EDGE ( 'NONE', *, *, #251, .F. ) ;
#272 = ADVANCED_FACE ( 'NONE', ( #285 ), #176, .T. ) ;
#273 = AXIS2_PLACEMENT_3D ( 'NONE', #335, #216, #119 ) ;
#274 = CONICAL_SURFACE ( 'NONE', #195, 25.18166908405494600, 0.5334223107790379000 ) ;
#275 = LOCAL_TIME ( 16, 47, 11.00000000000000000, #61 ) ;
#276 = ORIENTED_EDGE ( 'NONE', *, *, #67, .T. ) ;
#277 = EDGE_CURVE ( 'NONE', #264, #39, #243, .T. ) ;
#278 = LOCAL_TIME ( 16, 47, 11.00000000000000000, #113 ) ;
#279 = CIRCLE ( 'NONE', #152, 25.18166908405494600 ) ;
#280 = EDGE_LOOP ( 'NONE', ( #108, #65, #292, #48, #326 ) ) ;
#281 = DIRECTION ( 'NONE',  ( -1.000000000000000000, 0.0000000000000000000, 0.0000000000000000000 ) ) ;
#282 = UNCERTAINTY_MEASURE_WITH_UNIT (LENGTH_MEASURE( 1.000000000000000100E-005 ), #16, 'distance_accuracy_value', 'NONE');
#283 = EDGE_CURVE ( 'NONE', #22, #60, #137, .T. ) ;
#284 = DIRECTION ( 'NONE',  ( -0.0000000000000000000, -0.0000000000000000000, 1.000000000000000000 ) ) ;
#285 = FACE_OUTER_BOUND ( 'NONE', #280, .T. ) ;
#286 = DATE_AND_TIME ( #219, #344 ) ;
#287 = CIRCLE ( 'NONE', #172, 25.18166908405494900 ) ;
#288 = ORIENTED_EDGE ( 'NONE', *, *, #74, .F. ) ;
#289 = CARTESIAN_POINT ( 'NONE',  ( 0.0000000000000000000, 0.0000000000000000000, -1.010829345551300700 ) ) ;
#290 = DIRECTION ( 'NONE',  ( -0.0000000000000000000, -0.0000000000000000000, 1.000000000000000000 ) ) ;
#291 = CC_DESIGN_SECURITY_CLASSIFICATION ( #248, ( #186 ) ) ;
#292 = ORIENTED_EDGE ( 'NONE', *, *, #67, .F. ) ;
#293 = CC_DESIGN_PERSON_AND_ORGANIZATION_ASSIGNMENT ( #367, #3, ( #258 ) ) ;
#294 = DATE_AND_TIME ( #352, #275 ) ;
#295 = CC_DESIGN_PERSON_AND_ORGANIZATION_ASSIGNMENT ( #25, #211, ( #248 ) ) ;
#296 = APPROVAL_STATUS ( 'not_yet_approved' ) ;
#297 = EDGE_CURVE ( 'NONE', #167, #332, #221, .T. ) ;
#298 = SHAPE_DEFINITION_REPRESENTATION ( #144, #136 ) ;
#299 = DIRECTION ( 'NONE',  ( -1.000000000000000000, 0.0000000000000000000, 0.0000000000000000000 ) ) ;
#300 = ADVANCED_FACE ( 'NONE', ( #191 ), #162, .T. ) ;
#301 = ADVANCED_FACE ( 'NONE', ( #312 ), #274, .T. ) ;
#302 = CC_DESIGN_APPROVAL ( #81, ( #186 ) ) ;
#303 = APPROVAL_DATE_TIME ( #286, #188 ) ;
#304 = PRODUCT_RELATED_PRODUCT_CATEGORY ( 'detail', '', ( #258 ) ) ;
#305 = EDGE_CURVE ( 'NONE', #94, #358, #37, .T. ) ;
#306 = ORIENTED_EDGE ( 'NONE', *, *, #199, .F. ) ;
#307 = PERSON_AND_ORGANIZATION ( #115, #313 ) ;
#308 = APPLICATION_CONTEXT ( 'configuration controlled 3d designs of mechanical parts and assemblies' ) ;
#309 = APPLICATION_PROTOCOL_DEFINITION ( 'international standard', 'config_control_design', 1994, #244 ) ;
#310 = APPROVAL ( #89, 'UNSPECIFIED' ) ;
#311 = VECTOR ( 'NONE', #147, 1000.000000000000200 ) ;
#312 = FACE_OUTER_BOUND ( 'NONE', #164, .T. ) ;
#313 = ORGANIZATION ( 'UNSPECIFIED', 'UNSPECIFIED', '' ) ;
#314 = AXIS2_PLACEMENT_3D ( 'NONE', #213, #336, #340 ) ;
#315 = ORIENTED_EDGE ( 'NONE', *, *, #251, .T. ) ;
#316 = COORDINATED_UNIVERSAL_TIME_OFFSET ( 5, 0, .BEHIND. ) ;
#317 = VERTEX_POINT ( 'NONE', #247 ) ;
#318 = PERSON_AND_ORGANIZATION ( #115, #313 ) ;
#319 = CARTESIAN_POINT ( 'NONE',  ( -25.18166908405494600, 3.097233956965925500E-015, -1.380553722764639400 ) ) ;
#320 = AXIS2_PLACEMENT_3D ( 'NONE', #249, #157, #131 ) ;
#321 = EDGE_CURVE ( 'NONE', #94, #5, #20, .T. ) ;
#322 = DIRECTION ( 'NONE',  ( 0.0000000000000000000, 0.0000000000000000000, -1.000000000000000000 ) ) ;
#323 = ORIENTED_EDGE ( 'NONE', *, *, #21, .T. ) ;
#324 = LINE ( 'NONE', #111, #90 ) ;
#325 = CARTESIAN_POINT ( 'NONE',  ( 25.18166908405494600, 3.083865044097574500E-015, 1.380553722764646300 ) ) ;
#326 = ORIENTED_EDGE ( 'NONE', *, *, #21, .F. ) ;
#327 = DIRECTION ( 'NONE',  ( -1.000000000000000000, 0.0000000000000000000, 0.0000000000000000000 ) ) ;
#328 = PERSON_AND_ORGANIZATION_ROLE ( 'design_supplier' ) ;
#329 = CARTESIAN_POINT ( 'NONE',  ( 25.39999999999999900, 0.0000000000000000000, 7.799999999999999800 ) ) ;
#330 = EDGE_CURVE ( 'NONE', #141, #94, #34, .T. ) ;
#331 = ORIENTED_EDGE ( 'NONE', *, *, #354, .T. ) ;
#332 = VERTEX_POINT ( 'NONE', #206 ) ;
#333 = DIRECTION ( 'NONE',  ( -1.224646799147353000E-016, -1.000000000000000000, 0.0000000000000000000 ) ) ;
#334 = DIRECTION ( 'NONE',  ( -1.000000000000000000, 0.0000000000000000000, 0.0000000000000000000 ) ) ;
#335 = CARTESIAN_POINT ( 'NONE',  ( 0.0000000000000000000, 0.0000000000000000000, 7.799999999999999800 ) ) ;
#336 = DIRECTION ( 'NONE',  ( -0.0000000000000000000, -0.0000000000000000000, 1.000000000000000000 ) ) ;
#337 = ADVANCED_FACE ( 'NONE', ( #184 ), #9, .T. ) ;
#338 = EDGE_CURVE ( 'NONE', #169, #80, #324, .T. ) ;
#339 = FACE_OUTER_BOUND ( 'NONE', #193, .T. ) ;
#340 = DIRECTION ( 'NONE',  ( -1.000000000000000000, 0.0000000000000000000, 0.0000000000000000000 ) ) ;
#341 = ORIENTED_EDGE ( 'NONE', *, *, #330, .F. ) ;
#342 = AXIS2_PLACEMENT_3D ( 'NONE', #175, #299, #27 ) ;
#343 = CIRCLE ( 'NONE', #118, 25.18166908405494600 ) ;
#344 = LOCAL_TIME ( 16, 47, 11.00000000000000000, #316 ) ;
#345 = VECTOR ( 'NONE', #254, 1000.000000000000200 ) ;
#346 = DIRECTION ( 'NONE',  ( 0.0000000000000000000, 0.0000000000000000000, -1.000000000000000000 ) ) ;
#347 = CARTESIAN_POINT ( 'NONE',  ( 0.0000000000000000000, 0.0000000000000000000, -44.79999999999999700 ) ) ;
#348 = DIRECTION ( 'NONE',  ( -0.0000000000000000000, -0.0000000000000000000, 1.000000000000000000 ) ) ;
#349 = AXIS2_PLACEMENT_3D ( 'NONE', #183, #112, #143 ) ;
#350 = VECTOR ( 'NONE', #250, 1000.000000000000200 ) ;
#351 = DATE_TIME_ROLE ( 'creation_date' ) ;
#352 = CALENDAR_DATE ( 2015, 17, 6 ) ;
#353 = DIRECTION ( 'NONE',  ( 0.0000000000000000000, 0.0000000000000000000, -1.000000000000000000 ) ) ;
#354 = EDGE_CURVE ( 'NONE', #141, #29, #265, .T. ) ;
#355 = DIRECTION ( 'NONE',  ( -1.000000000000000000, 0.0000000000000000000, 0.0000000000000000000 ) ) ;
#356 = AXIS2_PLACEMENT_3D ( 'NONE', #55, #322, #14 ) ;
#357 = CIRCLE ( 'NONE', #110, 25.39999999999999900 ) ;
#358 = VERTEX_POINT ( 'NONE', #114 ) ;
#359 = CC_DESIGN_APPROVAL ( #188, ( #248 ) ) ;
#360 = DIRECTION ( 'NONE',  ( 0.0000000000000000000, 0.0000000000000000000, -1.000000000000000000 ) ) ;
#361 =( NAMED_UNIT ( * ) SI_UNIT ( $, .STERADIAN. ) SOLID_ANGLE_UNIT ( ) );
#362 = DIRECTION ( 'NONE',  ( 0.0000000000000000000, 1.000000000000000000, 0.0000000000000000000 ) ) ;
#363 = CARTESIAN_POINT ( 'NONE',  ( 0.0000000000000000000, 0.0000000000000000000, 7.799999999999999800 ) ) ;
#364 = AXIS2_PLACEMENT_3D ( 'NONE', #18, #242, #212 ) ;
#365 = CARTESIAN_POINT ( 'NONE',  ( 0.0000000000000000000, 3.220821081757538700E-015, 7.800000000000001600 ) ) ;
#366 = CONICAL_SURFACE ( 'NONE', #187, 25.18166908405494600, 0.5334223107790379000 ) ;
#367 = PERSON_AND_ORGANIZATION ( #115, #313 ) ;
ENDSEC;
END-ISO-10303-21;
