ISO-10303-21;
HEADER;
FILE_DESCRIPTION (( 'STEP AP203' ),
    '1' );
FILE_NAME ('TTN182809-E0W.STEP',
    '2019-10-24T14:01:26',
    ( '' ),
    ( '' ),
    'SwSTEP 2.0',
    'SolidWorks 2018',
    '' );
FILE_SCHEMA (( 'CONFIG_CONTROL_DESIGN' ));
ENDSEC;

DATA;
#1 = EDGE_CURVE ( 'NONE', #40, #272, #139, .T. ) ;
#2 = DIRECTION ( 'NONE',  ( 0.0000000000000000000, 1.000000000000000000, 2.168404344971008375E-16 ) ) ;
#3 = EDGE_CURVE ( 'NONE', #147, #251, #296, .T. ) ;
#4 = DIRECTION ( 'NONE',  ( -0.0000000000000000000, 1.224646799147353454E-16, -1.000000000000000000 ) ) ;
#5 = DIRECTION ( 'NONE',  ( -0.0000000000000000000, 1.224646799147353454E-16, -1.000000000000000000 ) ) ;
#6 =( NAMED_UNIT ( * ) PLANE_ANGLE_UNIT ( ) SI_UNIT ( $, .RADIAN. ) );
#7 = VERTEX_POINT ( 'NONE', #129 ) ;
#8 = UNCERTAINTY_MEASURE_WITH_UNIT (LENGTH_MEASURE( 1.000000000000000082E-05 ), #149, 'distance_accuracy_value', 'NONE');
#9 = CARTESIAN_POINT ( 'NONE',  ( 0.7240322242490313531, 0.1051563776488153440, 1.039274631072976129 ) ) ;
#10 = DIRECTION ( 'NONE',  ( -0.0000000000000000000, 1.224646799147353454E-16, -1.000000000000000000 ) ) ;
#11 = APPLICATION_PROTOCOL_DEFINITION ( 'international standard', 'config_control_design', 1994, #288 ) ;
#12 = CIRCLE ( 'NONE', #169, 1.000000000000000222 ) ;
#13 = APPROVAL_STATUS ( 'not_yet_approved' ) ;
#14 = EDGE_LOOP ( 'NONE', ( #226, #108, #140, #213 ) ) ;
#15 = DIRECTION ( 'NONE',  ( -1.398519409849086818E-16, 1.000000000000000000, 0.0000000000000000000 ) ) ;
#16 = CALENDAR_DATE ( 2019, 24, 10 ) ;
#17 = CIRCLE ( 'NONE', #59, 1.000000000000000222 ) ;
#18 = FACE_OUTER_BOUND ( 'NONE', #264, .T. ) ;
#19 = DIRECTION ( 'NONE',  ( -0.0000000000000000000, 1.224646799147353454E-16, -1.000000000000000000 ) ) ;
#20 = DIRECTION ( 'NONE',  ( 0.0000000000000000000, 1.000000000000000000, 1.398519409849086818E-16 ) ) ;
#21 = ORIENTED_EDGE ( 'NONE', *, *, #96, .T. ) ;
#22 = AXIS2_PLACEMENT_3D ( 'NONE', #248, #274, #20 ) ;
#23 = EDGE_CURVE ( 'NONE', #294, #7, #246, .T. ) ;
#24 = LOCAL_TIME ( 10, 1, 26.00000000000000000, #88 ) ;
#25 = ORIENTED_EDGE ( 'NONE', *, *, #190, .F. ) ;
#26 = EDGE_LOOP ( 'NONE', ( #214, #127, #215, #256 ) ) ;
#27 = CARTESIAN_POINT ( 'NONE',  ( 0.7240322242490313531, 1.055156377648814647, 1.840172495159740462 ) ) ;
#28 = PERSON_AND_ORGANIZATION ( #168, #182 ) ;
#29 = DIRECTION ( 'NONE',  ( 0.0000000000000000000, 1.000000000000000000, 2.168404344971008375E-16 ) ) ;
#30 = AXIS2_PLACEMENT_3D ( 'NONE', #124, #209, #78 ) ;
#31 = ORIENTED_EDGE ( 'NONE', *, *, #37, .T. ) ;
#32 =( NAMED_UNIT ( * ) SI_UNIT ( $, .STERADIAN. ) SOLID_ANGLE_UNIT ( ) );
#33 = CARTESIAN_POINT ( 'NONE',  ( 0.7240322242490313531, 1.055156377648814647, 1.039274631072976351 ) ) ;
#34 = PRODUCT_DEFINITION_SHAPE ( 'NONE', 'NONE',  #233 ) ;
#35 = CARTESIAN_POINT ( 'NONE',  ( 0.7240322242490313531, 2.055156377648814647, 1.039274631072976574 ) ) ;
#36 = SECURITY_CLASSIFICATION_LEVEL ( 'unclassified' ) ;
#37 = EDGE_CURVE ( 'NONE', #40, #147, #271, .T. ) ;
#38 = CARTESIAN_POINT ( 'NONE',  ( 0.7240322242490313531, 1.055156377648814425, 2.039274631072976796 ) ) ;
#39 = CARTESIAN_POINT ( 'NONE',  ( 0.7240322242490313531, 1.055156377648814647, 1.039274631072976351 ) ) ;
#40 = VERTEX_POINT ( 'NONE', #38 ) ;
#41 = LOCAL_TIME ( 10, 1, 26.00000000000000000, #79 ) ;
#42 = COORDINATED_UNIVERSAL_TIME_OFFSET ( 5, 0, .BEHIND. ) ;
#43 = AXIS2_PLACEMENT_3D ( 'NONE', #131, #237, #72 ) ;
#44 = DIRECTION ( 'NONE',  ( 0.0000000000000000000, -1.224646799147353454E-16, 1.000000000000000000 ) ) ;
#45 = DIRECTION ( 'NONE',  ( 0.0000000000000000000, 1.000000000000000000, 2.168404344971008375E-16 ) ) ;
#46 = APPROVAL_STATUS ( 'not_yet_approved' ) ;
#47 = CARTESIAN_POINT ( 'NONE',  ( 0.7240322242490313531, 1.055156377648814647, 1.039274631072976351 ) ) ;
#48 = DIRECTION ( 'NONE',  ( -0.0000000000000000000, 1.224646799147353454E-16, -1.000000000000000000 ) ) ;
#49 = ORIENTED_EDGE ( 'NONE', *, *, #37, .F. ) ;
#50 = APPROVAL ( #46, 'UNSPECIFIED' ) ;
#51 = CARTESIAN_POINT ( 'NONE',  ( 0.0000000000000000000, 0.0000000000000000000, 0.0000000000000000000 ) ) ;
#52 = APPROVAL_DATE_TIME ( #191, #164 ) ;
#53 = CARTESIAN_POINT ( 'NONE',  ( 0.7240322242490314641, 2.005156377648813937, 1.039274631072976574 ) ) ;
#54 = CC_DESIGN_PERSON_AND_ORGANIZATION_ASSIGNMENT ( #301, #181, ( #300 ) ) ;
#55 = CARTESIAN_POINT ( 'NONE',  ( 0.7240322242490313531, 2.055156377648814647, 1.840172495159740684 ) ) ;
#56 = APPROVAL_PERSON_ORGANIZATION ( #232, #164, #125 ) ;
#57 = DIRECTION ( 'NONE',  ( 0.0000000000000000000, 1.000000000000000000, 2.168404344971008375E-16 ) ) ;
#58 = ORIENTED_EDGE ( 'NONE', *, *, #186, .T. ) ;
#59 = AXIS2_PLACEMENT_3D ( 'NONE', #205, #73, #116 ) ;
#60 = LINE ( 'NONE', #9, #165 ) ;
#61 = EDGE_CURVE ( 'NONE', #251, #75, #158, .T. ) ;
#62 = MANIFOLD_SOLID_BREP ( 'TTN162270-1-solid1', #275 ) ;
#63 = CC_DESIGN_APPROVAL ( #50, ( #287 ) ) ;
#64 = COORDINATED_UNIVERSAL_TIME_OFFSET ( 5, 0, .BEHIND. ) ;
#65 = ORIENTED_EDGE ( 'NONE', *, *, #3, .T. ) ;
#66 = CARTESIAN_POINT ( 'NONE',  ( 0.7240322242490313531, 2.055156377648814647, 1.840172495159740684 ) ) ;
#67 = DIRECTION ( 'NONE',  ( 0.0000000000000000000, 1.000000000000000000, 2.282530889443168994E-16 ) ) ;
#68 = APPROVAL_DATE_TIME ( #104, #50 ) ;
#69 = AXIS2_PLACEMENT_3D ( 'NONE', #130, #19, #84 ) ;
#70 = LINE ( 'NONE', #35, #92 ) ;
#71 = EDGE_LOOP ( 'NONE', ( #203, #31, #179 ) ) ;
#72 = DIRECTION ( 'NONE',  ( 0.0000000000000000000, 1.000000000000000000, 2.282530889443168994E-16 ) ) ;
#73 = DIRECTION ( 'NONE',  ( 0.0000000000000000000, -1.224646799147353454E-16, 1.000000000000000000 ) ) ;
#74 = CIRCLE ( 'NONE', #99, 1.000000000000000222 ) ;
#75 = VERTEX_POINT ( 'NONE', #55 ) ;
#76 = AXIS2_PLACEMENT_3D ( 'NONE', #151, #10, #57 ) ;
#77 = CARTESIAN_POINT ( 'NONE',  ( 0.7240322242490314641, 0.05515637764881456406, 1.840172495159740240 ) ) ;
#78 = DIRECTION ( 'NONE',  ( 0.0000000000000000000, 0.0000000000000000000, 1.000000000000000000 ) ) ;
#79 = COORDINATED_UNIVERSAL_TIME_OFFSET ( 5, 0, .BEHIND. ) ;
#80 = EDGE_CURVE ( 'NONE', #75, #7, #70, .T. ) ;
#81 = ORIENTED_EDGE ( 'NONE', *, *, #252, .T. ) ;
#82 = CARTESIAN_POINT ( 'NONE',  ( 0.7240322242490313531, 1.055156377648814647, 1.840172495159740462 ) ) ;
#83 = AXIS2_PLACEMENT_3D ( 'NONE', #51, #227, #153 ) ;
#84 = DIRECTION ( 'NONE',  ( 0.0000000000000000000, 1.000000000000000000, 2.282530889443168008E-16 ) ) ;
#85 = DIRECTION ( 'NONE',  ( 0.0000000000000000000, -1.000000000000000000, -2.282530889443168994E-16 ) ) ;
#86 = VECTOR ( 'NONE', #178, 1000.000000000000000 ) ;
#87 = ORIENTED_EDGE ( 'NONE', *, *, #258, .T. ) ;
#88 = COORDINATED_UNIVERSAL_TIME_OFFSET ( 5, 0, .BEHIND. ) ;
#89 = DESIGN_CONTEXT ( 'detailed design', #102, 'design' ) ;
#90 = AXIS2_PLACEMENT_3D ( 'NONE', #199, #175, #220 ) ;
#91 = FACE_OUTER_BOUND ( 'NONE', #195, .T. ) ;
#92 = VECTOR ( 'NONE', #161, 1000.000000000000000 ) ;
#93 = ORIENTED_EDGE ( 'NONE', *, *, #135, .F. ) ;
#94 = AXIS2_PLACEMENT_3D ( 'NONE', #82, #212, #160 ) ;
#95 = DIRECTION ( 'NONE',  ( -0.0000000000000000000, 1.224646799147353454E-16, -1.000000000000000000 ) ) ;
#96 = EDGE_CURVE ( 'NONE', #272, #147, #202, .T. ) ;
#97 = CARTESIAN_POINT ( 'NONE',  ( 0.7240322242490314641, 0.05515637764881456406, 1.840172495159740240 ) ) ;
#98 = CARTESIAN_POINT ( 'NONE',  ( 0.7240322242490313531, 1.055156377648814647, 1.089274631072977062 ) ) ;
#99 = AXIS2_PLACEMENT_3D ( 'NONE', #98, #173, #2 ) ;
#100 = CARTESIAN_POINT ( 'NONE',  ( 0.7240322242490313531, 1.055156377648814647, -1.061725368927023627 ) ) ;
#101 = ORIENTED_EDGE ( 'NONE', *, *, #23, .T. ) ;
#102 = APPLICATION_CONTEXT ( 'configuration controlled 3d designs of mechanical parts and assemblies' ) ;
#103 = PERSON_AND_ORGANIZATION_ROLE ( 'creator' ) ;
#104 = DATE_AND_TIME ( #253, #298 ) ;
#105 = DIRECTION ( 'NONE',  ( 8.659560562354952580E-17, 0.7071067811865489050, 0.7071067811865462405 ) ) ;
#106 = CC_DESIGN_PERSON_AND_ORGANIZATION_ASSIGNMENT ( #115, #268, ( #255 ) ) ;
#107 = DIRECTION ( 'NONE',  ( -0.0000000000000000000, 1.224646799147353454E-16, -1.000000000000000000 ) ) ;
#108 = ORIENTED_EDGE ( 'NONE', *, *, #61, .T. ) ;
#109 = DIRECTION ( 'NONE',  ( 0.0000000000000000000, 1.000000000000000000, 2.282530889443168008E-16 ) ) ;
#110 = APPROVAL_DATE_TIME ( #260, #200 ) ;
#111 = SPHERICAL_SURFACE ( 'NONE', #194, 3.100999999999999979 ) ;
#112 =( GEOMETRIC_REPRESENTATION_CONTEXT ( 3 ) GLOBAL_UNCERTAINTY_ASSIGNED_CONTEXT ( ( #8 ) ) GLOBAL_UNIT_ASSIGNED_CONTEXT ( ( #149, #6, #32 ) ) REPRESENTATION_CONTEXT ( 'NONE', 'WORKASPACE' ) );
#113 = CC_DESIGN_DATE_AND_TIME_ASSIGNMENT ( #157, #269, ( #233 ) ) ;
#114 = EDGE_LOOP ( 'NONE', ( #277, #101, #247, #154 ) ) ;
#115 = PERSON_AND_ORGANIZATION ( #168, #182 ) ;
#116 = DIRECTION ( 'NONE',  ( 0.0000000000000000000, 1.000000000000000000, 2.168404344971008375E-16 ) ) ;
#117 = CARTESIAN_POINT ( 'NONE',  ( 0.7240322242490313531, 1.055156377648814647, 1.840172495159740462 ) ) ;
#118 = CC_DESIGN_PERSON_AND_ORGANIZATION_ASSIGNMENT ( #28, #103, ( #233 ) ) ;
#119 = DIRECTION ( 'NONE',  ( -0.0000000000000000000, 1.224646799147353454E-16, -1.000000000000000000 ) ) ;
#120 = SPHERICAL_SURFACE ( 'NONE', #22, 3.100999999999999979 ) ;
#121 = DIRECTION ( 'NONE',  ( 0.0000000000000000000, -0.7071067811865490160, 0.7071067811865460184 ) ) ;
#122 = ORIENTED_EDGE ( 'NONE', *, *, #228, .T. ) ;
#123 = PERSON_AND_ORGANIZATION_ROLE ( 'design_supplier' ) ;
#124 = CARTESIAN_POINT ( 'NONE',  ( 0.7240322242490313531, 1.055156377648814647, -1.061725368927023627 ) ) ;
#125 = APPROVAL_ROLE ( '' ) ;
#126 = FACE_OUTER_BOUND ( 'NONE', #26, .T. ) ;
#127 = ORIENTED_EDGE ( 'NONE', *, *, #135, .T. ) ;
#128 = AXIS2_PLACEMENT_3D ( 'NONE', #117, #5, #143 ) ;
#129 = CARTESIAN_POINT ( 'NONE',  ( 0.7240322242490313531, 2.055156377648814647, 1.089274631072977284 ) ) ;
#130 = CARTESIAN_POINT ( 'NONE',  ( 0.7240322242490313531, 1.055156377648814647, 1.890172495159740729 ) ) ;
#131 = CARTESIAN_POINT ( 'NONE',  ( 0.7240322242490313531, 1.055156377648814647, 1.039274631072976351 ) ) ;
#132 = ORIENTED_EDGE ( 'NONE', *, *, #235, .T. ) ;
#133 = CC_DESIGN_DATE_AND_TIME_ASSIGNMENT ( #170, #174, ( #287 ) ) ;
#134 = PERSON_AND_ORGANIZATION ( #168, #182 ) ;
#135 = EDGE_CURVE ( 'NONE', #147, #272, #166, .T. ) ;
#136 = ORIENTED_EDGE ( 'NONE', *, *, #80, .F. ) ;
#137 = APPROVAL_PERSON_ORGANIZATION ( #210, #50, #236 ) ;
#138 = CC_DESIGN_PERSON_AND_ORGANIZATION_ASSIGNMENT ( #230, #123, ( #255 ) ) ;
#139 = CIRCLE ( 'NONE', #30, 3.101000000000000423 ) ;
#140 = ORIENTED_EDGE ( 'NONE', *, *, #80, .T. ) ;
#141 = CONICAL_SURFACE ( 'NONE', #94, 1.000000000000000222, 0.7853981633974482790 ) ;
#142 = ORIENTED_EDGE ( 'NONE', *, *, #1, .T. ) ;
#143 = DIRECTION ( 'NONE',  ( 0.0000000000000000000, 1.000000000000000000, 2.168404344971008375E-16 ) ) ;
#144 = AXIS2_PLACEMENT_3D ( 'NONE', #33, #48, #45 ) ;
#145 = CARTESIAN_POINT ( 'NONE',  ( 0.7240322242490313531, 1.055156377648814647, 1.039274631072976351 ) ) ;
#146 = CALENDAR_DATE ( 2019, 24, 10 ) ;
#147 = VERTEX_POINT ( 'NONE', #290 ) ;
#148 = ADVANCED_FACE ( 'NONE', ( #18 ), #120, .T. ) ;
#149 =( LENGTH_UNIT ( ) NAMED_UNIT ( * ) SI_UNIT ( .MILLI., .METRE. ) );
#150 = ADVANCED_FACE ( 'NONE', ( #244 ), #250, .T. ) ;
#151 = CARTESIAN_POINT ( 'NONE',  ( 0.7240322242490313531, 1.055156377648814647, 1.840172495159740462 ) ) ;
#152 = AXIS2_PLACEMENT_3D ( 'NONE', #47, #95, #29 ) ;
#153 = DIRECTION ( 'NONE',  ( 1.000000000000000000, 0.0000000000000000000, 0.0000000000000000000 ) ) ;
#154 = ORIENTED_EDGE ( 'NONE', *, *, #228, .F. ) ;
#155 = APPROVAL_STATUS ( 'not_yet_approved' ) ;
#156 = ADVANCED_BREP_SHAPE_REPRESENTATION ( 'TTN182809-E0W', ( #62, #83 ), #112 ) ;
#157 = DATE_AND_TIME ( #249, #241 ) ;
#158 = CIRCLE ( 'NONE', #76, 1.000000000000000222 ) ;
#159 = PRODUCT_RELATED_PRODUCT_CATEGORY ( 'detail', '', ( #300 ) ) ;
#160 = DIRECTION ( 'NONE',  ( 0.0000000000000000000, 1.000000000000000000, 2.168404344971008375E-16 ) ) ;
#161 = DIRECTION ( 'NONE',  ( -0.0000000000000000000, 1.224646799147353454E-16, -1.000000000000000000 ) ) ;
#162 = CONICAL_SURFACE ( 'NONE', #128, 1.000000000000000222, 0.7853981633974482790 ) ;
#163 = CIRCLE ( 'NONE', #43, 0.9499999999999992895 ) ;
#164 = APPROVAL ( #13, 'UNSPECIFIED' ) ;
#165 = VECTOR ( 'NONE', #121, 1000.000000000000114 ) ;
#166 = CIRCLE ( 'NONE', #242, 0.9499999999999996225 ) ;
#167 = ORIENTED_EDGE ( 'NONE', *, *, #23, .F. ) ;
#168 = PERSON ( 'UNSPECIFIED', 'UNSPECIFIED', 'UNSPECIFIED', ('UNSPECIFIED'), ('UNSPECIFIED'), ('UNSPECIFIED') ) ;
#169 = AXIS2_PLACEMENT_3D ( 'NONE', #27, #119, #281 ) ;
#170 = DATE_AND_TIME ( #16, #41 ) ;
#171 = LINE ( 'NONE', #259, #86 ) ;
#172 = CARTESIAN_POINT ( 'NONE',  ( 0.7240322242490314641, 2.005156377648813937, 1.039274631072976574 ) ) ;
#173 = DIRECTION ( 'NONE',  ( 0.0000000000000000000, -1.224646799147353454E-16, 1.000000000000000000 ) ) ;
#174 = DATE_TIME_ROLE ( 'classification_date' ) ;
#175 = DIRECTION ( 'NONE',  ( -0.0000000000000000000, 1.224646799147353454E-16, -1.000000000000000000 ) ) ;
#176 = CYLINDRICAL_SURFACE ( 'NONE', #144, 1.000000000000000222 ) ;
#177 = ADVANCED_FACE ( 'NONE', ( #126 ), #141, .T. ) ;
#178 = DIRECTION ( 'NONE',  ( -0.0000000000000000000, 1.224646799147353454E-16, -1.000000000000000000 ) ) ;
#179 = ORIENTED_EDGE ( 'NONE', *, *, #96, .F. ) ;
#180 = DIRECTION ( 'NONE',  ( 8.659560562354934091E-17, -0.7071067811865474617, -0.7071067811865476838 ) ) ;
#181 = PERSON_AND_ORGANIZATION_ROLE ( 'design_owner' ) ;
#182 = ORGANIZATION ( 'UNSPECIFIED', 'UNSPECIFIED', '' ) ;
#183 = CC_DESIGN_APPROVAL ( #200, ( #233 ) ) ;
#184 = CARTESIAN_POINT ( 'NONE',  ( 0.7240322242490313531, 1.055156377648814647, -1.061725368927023627 ) ) ;
#185 = VECTOR ( 'NONE', #180, 1000.000000000000000 ) ;
#186 = EDGE_CURVE ( 'NONE', #208, #294, #163, .T. ) ;
#187 = CIRCLE ( 'NONE', #231, 0.9499999999999992895 ) ;
#188 = ORIENTED_EDGE ( 'NONE', *, *, #273, .F. ) ;
#189 = DIRECTION ( 'NONE',  ( 0.0000000000000000000, -1.224646799147353454E-16, 1.000000000000000000 ) ) ;
#190 = EDGE_CURVE ( 'NONE', #7, #299, #74, .T. ) ;
#191 = DATE_AND_TIME ( #146, #278 ) ;
#192 = FACE_OUTER_BOUND ( 'NONE', #211, .T. ) ;
#193 = ORIENTED_EDGE ( 'NONE', *, *, #186, .F. ) ;
#194 = AXIS2_PLACEMENT_3D ( 'NONE', #100, #262, #267 ) ;
#195 = EDGE_LOOP ( 'NONE', ( #21, #65, #284, #188 ) ) ;
#196 = SHAPE_DEFINITION_REPRESENTATION ( #34, #156 ) ;
#197 = CYLINDRICAL_SURFACE ( 'NONE', #152, 1.000000000000000222 ) ;
#198 = EDGE_LOOP ( 'NONE', ( #167, #193, #122, #25 ) ) ;
#199 = CARTESIAN_POINT ( 'NONE',  ( 0.7240322242490313531, 1.055156377648814647, 1.039274631072976351 ) ) ;
#200 = APPROVAL ( #155, 'UNSPECIFIED' ) ;
#201 = CARTESIAN_POINT ( 'NONE',  ( 0.7240322242490313531, 0.1051563776488153440, 1.039274631072976129 ) ) ;
#202 = CIRCLE ( 'NONE', #69, 0.9499999999999996225 ) ;
#203 = ORIENTED_EDGE ( 'NONE', *, *, #1, .F. ) ;
#204 = ADVANCED_FACE ( 'NONE', ( #225 ), #197, .T. ) ;
#205 = CARTESIAN_POINT ( 'NONE',  ( 0.7240322242490313531, 1.055156377648814647, 1.089274631072977062 ) ) ;
#206 = AXIS2_PLACEMENT_3D ( 'NONE', #39, #189, #85 ) ;
#207 = PERSON_AND_ORGANIZATION_ROLE ( 'classification_officer' ) ;
#208 = VERTEX_POINT ( 'NONE', #201 ) ;
#209 = DIRECTION ( 'NONE',  ( -1.000000000000000000, 0.0000000000000000000, 0.0000000000000000000 ) ) ;
#210 = PERSON_AND_ORGANIZATION ( #168, #182 ) ;
#211 = EDGE_LOOP ( 'NONE', ( #58, #87 ) ) ;
#212 = DIRECTION ( 'NONE',  ( -0.0000000000000000000, 1.224646799147353454E-16, -1.000000000000000000 ) ) ;
#213 = ORIENTED_EDGE ( 'NONE', *, *, #190, .T. ) ;
#214 = ORIENTED_EDGE ( 'NONE', *, *, #3, .F. ) ;
#215 = ORIENTED_EDGE ( 'NONE', *, *, #273, .T. ) ;
#216 = EDGE_CURVE ( 'NONE', #75, #251, #12, .T. ) ;
#217 = PERSON_AND_ORGANIZATION ( #168, #182 ) ;
#218 = LINE ( 'NONE', #66, #222 ) ;
#219 = PLANE ( 'NONE',  #90 ) ;
#220 = DIRECTION ( 'NONE',  ( 0.0000000000000000000, 1.000000000000000000, 1.224646799147353454E-16 ) ) ;
#221 = CC_DESIGN_PERSON_AND_ORGANIZATION_ASSIGNMENT ( #134, #207, ( #287 ) ) ;
#222 = VECTOR ( 'NONE', #239, 1000.000000000000000 ) ;
#223 = CARTESIAN_POINT ( 'NONE',  ( 0.7240322242490313531, 2.005156377648814381, 1.890172495159740951 ) ) ;
#224 = ADVANCED_FACE ( 'NONE', ( #192 ), #219, .T. ) ;
#225 = FACE_OUTER_BOUND ( 'NONE', #254, .T. ) ;
#226 = ORIENTED_EDGE ( 'NONE', *, *, #235, .F. ) ;
#227 = DIRECTION ( 'NONE',  ( 0.0000000000000000000, 0.0000000000000000000, 1.000000000000000000 ) ) ;
#228 = EDGE_CURVE ( 'NONE', #208, #299, #60, .T. ) ;
#229 = ORIENTED_EDGE ( 'NONE', *, *, #216, .T. ) ;
#230 = PERSON_AND_ORGANIZATION ( #168, #182 ) ;
#231 = AXIS2_PLACEMENT_3D ( 'NONE', #145, #4, #67 ) ;
#232 = PERSON_AND_ORGANIZATION ( #168, #182 ) ;
#233 = PRODUCT_DEFINITION ( 'UNKNOWN', '', #255, #89 ) ;
#234 = ADVANCED_FACE ( 'NONE', ( #238 ), #261, .T. ) ;
#235 = EDGE_CURVE ( 'NONE', #251, #299, #171, .T. ) ;
#236 = APPROVAL_ROLE ( '' ) ;
#237 = DIRECTION ( 'NONE',  ( -0.0000000000000000000, 1.224646799147353454E-16, -1.000000000000000000 ) ) ;
#238 = FACE_OUTER_BOUND ( 'NONE', #198, .T. ) ;
#239 = DIRECTION ( 'NONE',  ( 0.0000000000000000000, 0.7071067811865476838, -0.7071067811865474617 ) ) ;
#240 = MECHANICAL_CONTEXT ( 'NONE', #288, 'mechanical' ) ;
#241 = LOCAL_TIME ( 10, 1, 26.00000000000000000, #289 ) ;
#242 = AXIS2_PLACEMENT_3D ( 'NONE', #292, #107, #109 ) ;
#243 = APPROVAL_ROLE ( '' ) ;
#244 = FACE_OUTER_BOUND ( 'NONE', #114, .T. ) ;
#245 = AXIS2_PLACEMENT_3D ( 'NONE', #295, #44, #265 ) ;
#246 = LINE ( 'NONE', #53, #280 ) ;
#247 = ORIENTED_EDGE ( 'NONE', *, *, #252, .F. ) ;
#248 = CARTESIAN_POINT ( 'NONE',  ( 0.7240322242490313531, 1.055156377648814647, -1.061725368927023627 ) ) ;
#249 = CALENDAR_DATE ( 2019, 24, 10 ) ;
#250 = CONICAL_SURFACE ( 'NONE', #206, 0.9499999999999992895, 0.7853981633974503884 ) ;
#251 = VERTEX_POINT ( 'NONE', #97 ) ;
#252 = EDGE_CURVE ( 'NONE', #299, #7, #17, .T. ) ;
#253 = CALENDAR_DATE ( 2019, 24, 10 ) ;
#254 = EDGE_LOOP ( 'NONE', ( #229, #132, #81, #136 ) ) ;
#255 = PRODUCT_DEFINITION_FORMATION_WITH_SPECIFIED_SOURCE ( 'ANY', '', #300, .NOT_KNOWN. ) ;
#256 = ORIENTED_EDGE ( 'NONE', *, *, #61, .F. ) ;
#257 = ADVANCED_FACE ( 'NONE', ( #293 ), #176, .T. ) ;
#258 = EDGE_CURVE ( 'NONE', #294, #208, #187, .T. ) ;
#259 = CARTESIAN_POINT ( 'NONE',  ( 0.7240322242490314641, 0.05515637764881456406, 1.039274631072976129 ) ) ;
#260 = DATE_AND_TIME ( #270, #24 ) ;
#261 = CONICAL_SURFACE ( 'NONE', #245, 0.9499999999999992895, 0.7853981633974503884 ) ;
#262 = DIRECTION ( 'NONE',  ( 1.000000000000000000, 0.0000000000000000000, -0.0000000000000000000 ) ) ;
#263 = CARTESIAN_POINT ( 'NONE',  ( 0.7240322242490314641, 0.05515637764881456406, 1.089274631072976840 ) ) ;
#264 = EDGE_LOOP ( 'NONE', ( #49, #142, #93 ) ) ;
#265 = DIRECTION ( 'NONE',  ( 0.0000000000000000000, -1.000000000000000000, -2.282530889443168994E-16 ) ) ;
#266 = ADVANCED_FACE ( 'NONE', ( #283 ), #111, .T. ) ;
#267 = DIRECTION ( 'NONE',  ( 0.0000000000000000000, 1.000000000000000000, 1.398519409849086818E-16 ) ) ;
#268 = PERSON_AND_ORGANIZATION_ROLE ( 'creator' ) ;
#269 = DATE_TIME_ROLE ( 'creation_date' ) ;
#270 = CALENDAR_DATE ( 2019, 24, 10 ) ;
#271 = CIRCLE ( 'NONE', #276, 3.100999999999999535 ) ;
#272 = VERTEX_POINT ( 'NONE', #223 ) ;
#273 = EDGE_CURVE ( 'NONE', #272, #75, #218, .T. ) ;
#274 = DIRECTION ( 'NONE',  ( 1.000000000000000000, 0.0000000000000000000, -0.0000000000000000000 ) ) ;
#275 = CLOSED_SHELL ( 'NONE', ( #150, #266, #282, #204, #224, #257, #177, #148, #234 ) ) ;
#276 = AXIS2_PLACEMENT_3D ( 'NONE', #184, #285, #15 ) ;
#277 = ORIENTED_EDGE ( 'NONE', *, *, #258, .F. ) ;
#278 = LOCAL_TIME ( 10, 1, 26.00000000000000000, #42 ) ;
#279 = CC_DESIGN_APPROVAL ( #164, ( #255 ) ) ;
#280 = VECTOR ( 'NONE', #105, 1000.000000000000000 ) ;
#281 = DIRECTION ( 'NONE',  ( 0.0000000000000000000, 1.000000000000000000, 2.168404344971008375E-16 ) ) ;
#282 = ADVANCED_FACE ( 'NONE', ( #91 ), #162, .T. ) ;
#283 = FACE_OUTER_BOUND ( 'NONE', #71, .T. ) ;
#284 = ORIENTED_EDGE ( 'NONE', *, *, #216, .F. ) ;
#285 = DIRECTION ( 'NONE',  ( 1.000000000000000000, 1.224646799147353207E-16, 1.499759782661857882E-32 ) ) ;
#286 = APPLICATION_PROTOCOL_DEFINITION ( 'international standard', 'config_control_design', 1994, #102 ) ;
#287 = SECURITY_CLASSIFICATION ( '', '', #36 ) ;
#288 = APPLICATION_CONTEXT ( 'configuration controlled 3d designs of mechanical parts and assemblies' ) ;
#289 = COORDINATED_UNIVERSAL_TIME_OFFSET ( 5, 0, .BEHIND. ) ;
#290 = CARTESIAN_POINT ( 'NONE',  ( 0.7240322242490314641, 0.1051563776488150248, 1.890172495159740507 ) ) ;
#291 = APPROVAL_PERSON_ORGANIZATION ( #217, #200, #243 ) ;
#292 = CARTESIAN_POINT ( 'NONE',  ( 0.7240322242490313531, 1.055156377648814647, 1.890172495159740729 ) ) ;
#293 = FACE_OUTER_BOUND ( 'NONE', #14, .T. ) ;
#294 = VERTEX_POINT ( 'NONE', #172 ) ;
#295 = CARTESIAN_POINT ( 'NONE',  ( 0.7240322242490313531, 1.055156377648814647, 1.039274631072976351 ) ) ;
#296 = LINE ( 'NONE', #77, #185 ) ;
#297 = CC_DESIGN_SECURITY_CLASSIFICATION ( #287, ( #255 ) ) ;
#298 = LOCAL_TIME ( 10, 1, 26.00000000000000000, #64 ) ;
#299 = VERTEX_POINT ( 'NONE', #263 ) ;
#300 = PRODUCT ( 'TTN182809-E0W', 'TTN182809-E0W', '', ( #240 ) ) ;
#301 = PERSON_AND_ORGANIZATION ( #168, #182 ) ;
ENDSEC;
END-ISO-10303-21;
