ISO-10303-21;
HEADER;
FILE_DESCRIPTION (( 'STEP AP203' ),
    '1' );
FILE_NAME ('Web Model 47230_49647.step',
    '2019-01-07T15:31:39',
    ( '' ),
    ( '' ),
    'SwSTEP 2.0',
    'SolidWorks 2016',
    '' );
FILE_SCHEMA (( 'CONFIG_CONTROL_DESIGN' ));
ENDSEC;

DATA;
#1 = CALENDAR_DATE ( 2019, 7, 1 ) ;
#2 = DIRECTION ( 'NONE',  ( 0.0000000000000000000, 0.0000000000000000000, 1.000000000000000000 ) ) ;
#3 = DIRECTION ( 'NONE',  ( 1.000000000000000000, 0.0000000000000000000, -0.0000000000000000000 ) ) ;
#4 = DIRECTION ( 'NONE',  ( 0.0000000000000000000, 0.0000000000000000000, 1.000000000000000000 ) ) ;
#5 = CARTESIAN_POINT ( 'NONE',  ( 0.0000000000000000000, 0.0000000000000000000, 2.000000000000000000 ) ) ;
#6 = ORIENTED_EDGE ( 'NONE', *, *, #34, .T. ) ;
#7 = EDGE_LOOP ( 'NONE', ( #18, #172, #139, #25 ) ) ;
#8 = EDGE_LOOP ( 'NONE', ( #155, #61, #6, #49 ) ) ;
#9 = DIRECTION ( 'NONE',  ( -0.0000000000000000000, -0.0000000000000000000, -1.000000000000000000 ) ) ;
#10 = CARTESIAN_POINT ( 'NONE',  ( -25.00000000000000000, 0.0000000000000000000, 2.000000000000000000 ) ) ;
#11 = DIRECTION ( 'NONE',  ( 1.000000000000000000, 0.0000000000000000000, 0.0000000000000000000 ) ) ;
#12 = APPROVAL ( #110, 'UNSPECIFIED' ) ;
#13 = APPLICATION_CONTEXT ( 'configuration controlled 3d designs of mechanical parts and assemblies' ) ;
#14 = CALENDAR_DATE ( 2019, 7, 1 ) ;
#15 = DIRECTION ( 'NONE',  ( 1.000000000000000000, 0.0000000000000000000, 0.0000000000000000000 ) ) ;
#16 = EDGE_CURVE ( 'NONE', #106, #32, #114, .T. ) ;
#17 = CARTESIAN_POINT ( 'NONE',  ( 0.0000000000000000000, 0.0000000000000000000, 2.000000000000000000 ) ) ;
#18 = ORIENTED_EDGE ( 'NONE', *, *, #63, .F. ) ;
#19 = CC_DESIGN_PERSON_AND_ORGANIZATION_ASSIGNMENT ( #120, #54, ( #92 ) ) ;
#20 = DATE_AND_TIME ( #45, #98 ) ;
#21 = PERSON_AND_ORGANIZATION ( #47, #77 ) ;
#22 = LOCAL_TIME ( 10, 31, 39.00000000000000000, #86 ) ;
#23 = MANIFOLD_SOLID_BREP ( 'Boss-Extrude1', #127 ) ;
#24 = AXIS2_PLACEMENT_3D ( 'NONE', #55, #4, #15 ) ;
#25 = ORIENTED_EDGE ( 'NONE', *, *, #56, .T. ) ;
#26 = CARTESIAN_POINT ( 'NONE',  ( 0.0000000000000000000, 0.0000000000000000000, 2.000000000000000000 ) ) ;
#27 = VECTOR ( 'NONE', #9, 1000.000000000000000 ) ;
#28 = CARTESIAN_POINT ( 'NONE',  ( 0.0000000000000000000, 0.0000000000000000000, 0.0000000000000000000 ) ) ;
#29 = APPROVAL_ROLE ( '' ) ;
#30 = FACE_OUTER_BOUND ( 'NONE', #74, .T. ) ;
#31 = CYLINDRICAL_SURFACE ( 'NONE', #118, 25.00000000000000000 ) ;
#32 = VERTEX_POINT ( 'NONE', #10 ) ;
#33 = CALENDAR_DATE ( 2019, 7, 1 ) ;
#34 = EDGE_CURVE ( 'NONE', #161, #143, #142, .T. ) ;
#35 = LOCAL_TIME ( 10, 31, 39.00000000000000000, #72 ) ;
#36 = ADVANCED_BREP_SHAPE_REPRESENTATION ( 'Web Model 47230_49647', ( #23, #59 ), #124 ) ;
#37 = CARTESIAN_POINT ( 'NONE',  ( 25.00000000000000000, 3.061616997868383000E-015, -2.000000000000000000 ) ) ;
#38 = ADVANCED_FACE ( 'NONE', ( #99 ), #31, .T. ) ;
#39 = APPROVAL_ROLE ( '' ) ;
#40 = CIRCLE ( 'NONE', #24, 25.00000000000000000 ) ;
#41 = PERSON_AND_ORGANIZATION_ROLE ( 'design_supplier' ) ;
#42 = DIRECTION ( 'NONE',  ( 0.0000000000000000000, 0.0000000000000000000, 1.000000000000000000 ) ) ;
#43 = PERSON_AND_ORGANIZATION ( #47, #77 ) ;
#44 = AXIS2_PLACEMENT_3D ( 'NONE', #171, #130, #87 ) ;
#45 = CALENDAR_DATE ( 2019, 7, 1 ) ;
#46 = CIRCLE ( 'NONE', #44, 25.00000000000000000 ) ;
#47 = PERSON ( 'UNSPECIFIED', 'UNSPECIFIED', 'UNSPECIFIED', ('UNSPECIFIED'), ('UNSPECIFIED'), ('UNSPECIFIED') ) ;
#48 = COORDINATED_UNIVERSAL_TIME_OFFSET ( 5, 0, .BEHIND. ) ;
#49 = ORIENTED_EDGE ( 'NONE', *, *, #112, .F. ) ;
#50 = APPROVAL_PERSON_ORGANIZATION ( #102, #174, #148 ) ;
#51 = CALENDAR_DATE ( 2019, 7, 1 ) ;
#52 = PERSON_AND_ORGANIZATION_ROLE ( 'creator' ) ;
#53 = DIRECTION ( 'NONE',  ( 0.0000000000000000000, 0.0000000000000000000, 1.000000000000000000 ) ) ;
#54 = PERSON_AND_ORGANIZATION_ROLE ( 'classification_officer' ) ;
#55 = CARTESIAN_POINT ( 'NONE',  ( 0.0000000000000000000, 0.0000000000000000000, 2.000000000000000000 ) ) ;
#56 = EDGE_CURVE ( 'NONE', #143, #161, #46, .T. ) ;
#57 = PERSON_AND_ORGANIZATION ( #47, #77 ) ;
#58 = CC_DESIGN_PERSON_AND_ORGANIZATION_ASSIGNMENT ( #57, #123, ( #156 ) ) ;
#59 = AXIS2_PLACEMENT_3D ( 'NONE', #28, #134, #68 ) ;
#60 = APPROVAL ( #119, 'UNSPECIFIED' ) ;
#61 = ORIENTED_EDGE ( 'NONE', *, *, #63, .T. ) ;
#62 = CC_DESIGN_DATE_AND_TIME_ASSIGNMENT ( #66, #67, ( #92 ) ) ;
#63 = EDGE_CURVE ( 'NONE', #106, #161, #88, .T. ) ;
#64 = FACE_OUTER_BOUND ( 'NONE', #166, .T. ) ;
#65 = ADVANCED_FACE ( 'NONE', ( #64 ), #104, .F. ) ;
#66 = DATE_AND_TIME ( #33, #108 ) ;
#67 = DATE_TIME_ROLE ( 'classification_date' ) ;
#68 = DIRECTION ( 'NONE',  ( 1.000000000000000000, 0.0000000000000000000, 0.0000000000000000000 ) ) ;
#69 =( NAMED_UNIT ( * ) PLANE_ANGLE_UNIT ( ) SI_UNIT ( $, .RADIAN. ) );
#70 = APPLICATION_PROTOCOL_DEFINITION ( 'international standard', 'config_control_design', 1994, #121 ) ;
#71 = AXIS2_PLACEMENT_3D ( 'NONE', #17, #147, #80 ) ;
#72 = COORDINATED_UNIVERSAL_TIME_OFFSET ( 5, 0, .BEHIND. ) ;
#73 = CC_DESIGN_PERSON_AND_ORGANIZATION_ASSIGNMENT ( #21, #41, ( #156 ) ) ;
#74 = EDGE_LOOP ( 'NONE', ( #100, #82 ) ) ;
#75 = ADVANCED_FACE ( 'NONE', ( #129 ), #136, .T. ) ;
#76 = DIRECTION ( 'NONE',  ( 0.0000000000000000000, 0.0000000000000000000, 1.000000000000000000 ) ) ;
#77 = ORGANIZATION ( 'UNSPECIFIED', 'UNSPECIFIED', '' ) ;
#78 =( LENGTH_UNIT ( ) NAMED_UNIT ( * ) SI_UNIT ( .MILLI., .METRE. ) );
#79 = AXIS2_PLACEMENT_3D ( 'NONE', #105, #2, #11 ) ;
#80 = DIRECTION ( 'NONE',  ( -1.000000000000000000, 0.0000000000000000000, 0.0000000000000000000 ) ) ;
#81 = CC_DESIGN_APPROVAL ( #12, ( #156 ) ) ;
#82 = ORIENTED_EDGE ( 'NONE', *, *, #16, .T. ) ;
#83 = COORDINATED_UNIVERSAL_TIME_OFFSET ( 5, 0, .BEHIND. ) ;
#84 = CC_DESIGN_PERSON_AND_ORGANIZATION_ASSIGNMENT ( #115, #52, ( #133 ) ) ;
#85 = VECTOR ( 'NONE', #146, 1000.000000000000000 ) ;
#86 = COORDINATED_UNIVERSAL_TIME_OFFSET ( 5, 0, .BEHIND. ) ;
#87 = DIRECTION ( 'NONE',  ( 1.000000000000000000, 0.0000000000000000000, 0.0000000000000000000 ) ) ;
#88 = LINE ( 'NONE', #131, #27 ) ;
#89 = ADVANCED_FACE ( 'NONE', ( #30 ), #93, .T. ) ;
#90 = PERSON_AND_ORGANIZATION ( #47, #77 ) ;
#91 = COORDINATED_UNIVERSAL_TIME_OFFSET ( 5, 0, .BEHIND. ) ;
#92 = SECURITY_CLASSIFICATION ( '', '', #137 ) ;
#93 = PLANE ( 'NONE',  #141 ) ;
#94 = APPROVAL_STATUS ( 'not_yet_approved' ) ;
#95 = PERSON_AND_ORGANIZATION_ROLE ( 'design_owner' ) ;
#96 = MECHANICAL_CONTEXT ( 'NONE', #13, 'mechanical' ) ;
#97 = PERSON_AND_ORGANIZATION ( #47, #77 ) ;
#98 = LOCAL_TIME ( 10, 31, 39.00000000000000000, #91 ) ;
#99 = FACE_OUTER_BOUND ( 'NONE', #7, .T. ) ;
#100 = ORIENTED_EDGE ( 'NONE', *, *, #170, .T. ) ;
#101 = CC_DESIGN_APPROVAL ( #174, ( #92 ) ) ;
#102 = PERSON_AND_ORGANIZATION ( #47, #77 ) ;
#103 = ORIENTED_EDGE ( 'NONE', *, *, #56, .F. ) ;
#104 = PLANE ( 'NONE',  #165 ) ;
#105 = CARTESIAN_POINT ( 'NONE',  ( 0.0000000000000000000, 0.0000000000000000000, -2.000000000000000000 ) ) ;
#106 = VERTEX_POINT ( 'NONE', #157 ) ;
#107 = CARTESIAN_POINT ( 'NONE',  ( -25.00000000000000000, 0.0000000000000000000, 2.000000000000000000 ) ) ;
#108 = LOCAL_TIME ( 10, 31, 39.00000000000000000, #83 ) ;
#109 = ORIENTED_EDGE ( 'NONE', *, *, #34, .F. ) ;
#110 = APPROVAL_STATUS ( 'not_yet_approved' ) ;
#111 = DATE_TIME_ROLE ( 'creation_date' ) ;
#112 = EDGE_CURVE ( 'NONE', #32, #143, #132, .T. ) ;
#113 = DESIGN_CONTEXT ( 'detailed design', #121, 'design' ) ;
#114 = CIRCLE ( 'NONE', #152, 25.00000000000000000 ) ;
#115 = PERSON_AND_ORGANIZATION ( #47, #77 ) ;
#116 = CC_DESIGN_DATE_AND_TIME_ASSIGNMENT ( #151, #111, ( #133 ) ) ;
#117 = DIRECTION ( 'NONE',  ( -0.0000000000000000000, -0.0000000000000000000, -1.000000000000000000 ) ) ;
#118 = AXIS2_PLACEMENT_3D ( 'NONE', #26, #117, #173 ) ;
#119 = APPROVAL_STATUS ( 'not_yet_approved' ) ;
#120 = PERSON_AND_ORGANIZATION ( #47, #77 ) ;
#121 = APPLICATION_CONTEXT ( 'configuration controlled 3d designs of mechanical parts and assemblies' ) ;
#122 = CC_DESIGN_SECURITY_CLASSIFICATION ( #92, ( #156 ) ) ;
#123 = PERSON_AND_ORGANIZATION_ROLE ( 'creator' ) ;
#124 =( GEOMETRIC_REPRESENTATION_CONTEXT ( 3 ) GLOBAL_UNCERTAINTY_ASSIGNED_CONTEXT ( ( #169 ) ) GLOBAL_UNIT_ASSIGNED_CONTEXT ( ( #78, #69, #125 ) ) REPRESENTATION_CONTEXT ( 'NONE', 'WORKASPACE' ) );
#125 =( NAMED_UNIT ( * ) SI_UNIT ( $, .STERADIAN. ) SOLID_ANGLE_UNIT ( ) );
#126 = APPROVAL_DATE_TIME ( #138, #60 ) ;
#127 = CLOSED_SHELL ( 'NONE', ( #75, #38, #89, #65 ) ) ;
#128 = APPROVAL_DATE_TIME ( #153, #12 ) ;
#129 = FACE_OUTER_BOUND ( 'NONE', #8, .T. ) ;
#130 = DIRECTION ( 'NONE',  ( 0.0000000000000000000, 0.0000000000000000000, 1.000000000000000000 ) ) ;
#131 = CARTESIAN_POINT ( 'NONE',  ( 25.00000000000000000, 3.061616997868383000E-015, 2.000000000000000000 ) ) ;
#132 = LINE ( 'NONE', #107, #85 ) ;
#133 = PRODUCT_DEFINITION ( 'UNKNOWN', '', #156, #113 ) ;
#134 = DIRECTION ( 'NONE',  ( 0.0000000000000000000, 0.0000000000000000000, 1.000000000000000000 ) ) ;
#135 = DIRECTION ( 'NONE',  ( 1.000000000000000000, 0.0000000000000000000, -0.0000000000000000000 ) ) ;
#136 = CYLINDRICAL_SURFACE ( 'NONE', #71, 25.00000000000000000 ) ;
#137 = SECURITY_CLASSIFICATION_LEVEL ( 'unclassified' ) ;
#138 = DATE_AND_TIME ( #1, #35 ) ;
#139 = ORIENTED_EDGE ( 'NONE', *, *, #112, .T. ) ;
#140 = CC_DESIGN_APPROVAL ( #60, ( #133 ) ) ;
#141 = AXIS2_PLACEMENT_3D ( 'NONE', #5, #53, #3 ) ;
#142 = CIRCLE ( 'NONE', #79, 25.00000000000000000 ) ;
#143 = VERTEX_POINT ( 'NONE', #162 ) ;
#144 = APPROVAL_PERSON_ORGANIZATION ( #97, #60, #39 ) ;
#145 = DIRECTION ( 'NONE',  ( 1.000000000000000000, 0.0000000000000000000, 0.0000000000000000000 ) ) ;
#146 = DIRECTION ( 'NONE',  ( -0.0000000000000000000, -0.0000000000000000000, -1.000000000000000000 ) ) ;
#147 = DIRECTION ( 'NONE',  ( -0.0000000000000000000, -0.0000000000000000000, -1.000000000000000000 ) ) ;
#148 = APPROVAL_ROLE ( '' ) ;
#149 = CARTESIAN_POINT ( 'NONE',  ( 0.0000000000000000000, 0.0000000000000000000, -2.000000000000000000 ) ) ;
#150 = SHAPE_DEFINITION_REPRESENTATION ( #175, #36 ) ;
#151 = DATE_AND_TIME ( #14, #22 ) ;
#152 = AXIS2_PLACEMENT_3D ( 'NONE', #154, #76, #145 ) ;
#153 = DATE_AND_TIME ( #51, #164 ) ;
#154 = CARTESIAN_POINT ( 'NONE',  ( 0.0000000000000000000, 0.0000000000000000000, 2.000000000000000000 ) ) ;
#155 = ORIENTED_EDGE ( 'NONE', *, *, #16, .F. ) ;
#156 = PRODUCT_DEFINITION_FORMATION_WITH_SPECIFIED_SOURCE ( 'ANY', '', #168, .NOT_KNOWN. ) ;
#157 = CARTESIAN_POINT ( 'NONE',  ( 25.00000000000000000, 3.061616997868383000E-015, 2.000000000000000000 ) ) ;
#158 = APPROVAL_PERSON_ORGANIZATION ( #90, #12, #29 ) ;
#159 = APPROVAL_DATE_TIME ( #20, #174 ) ;
#160 = APPLICATION_PROTOCOL_DEFINITION ( 'international standard', 'config_control_design', 1994, #13 ) ;
#161 = VERTEX_POINT ( 'NONE', #37 ) ;
#162 = CARTESIAN_POINT ( 'NONE',  ( -25.00000000000000000, 0.0000000000000000000, -2.000000000000000000 ) ) ;
#163 = CC_DESIGN_PERSON_AND_ORGANIZATION_ASSIGNMENT ( #43, #95, ( #168 ) ) ;
#164 = LOCAL_TIME ( 10, 31, 39.00000000000000000, #48 ) ;
#165 = AXIS2_PLACEMENT_3D ( 'NONE', #149, #42, #135 ) ;
#166 = EDGE_LOOP ( 'NONE', ( #103, #109 ) ) ;
#167 = PRODUCT_RELATED_PRODUCT_CATEGORY ( 'detail', '', ( #168 ) ) ;
#168 = PRODUCT ( 'Web Model 47230_49647', 'Web Model 47230_49647', '', ( #96 ) ) ;
#169 = UNCERTAINTY_MEASURE_WITH_UNIT (LENGTH_MEASURE( 1.000000000000000100E-005 ), #78, 'distance_accuracy_value', 'NONE');
#170 = EDGE_CURVE ( 'NONE', #32, #106, #40, .T. ) ;
#171 = CARTESIAN_POINT ( 'NONE',  ( 0.0000000000000000000, 0.0000000000000000000, -2.000000000000000000 ) ) ;
#172 = ORIENTED_EDGE ( 'NONE', *, *, #170, .F. ) ;
#173 = DIRECTION ( 'NONE',  ( -1.000000000000000000, 0.0000000000000000000, 0.0000000000000000000 ) ) ;
#174 = APPROVAL ( #94, 'UNSPECIFIED' ) ;
#175 = PRODUCT_DEFINITION_SHAPE ( 'NONE', 'NONE',  #133 ) ;
ENDSEC;
END-ISO-10303-21;
