ISO-10303-21;
HEADER;
FILE_DESCRIPTION (( 'STEP AP203' ),
    '1' );
FILE_NAME ('Web Model 48427_48427.step',
    '2018-03-12T20:53:40',
    ( '' ),
    ( '' ),
    'SwSTEP 2.0',
    'SolidWorks 2016',
    '' );
FILE_SCHEMA (( 'CONFIG_CONTROL_DESIGN' ));
ENDSEC;

DATA;
#1 = VECTOR ( 'NONE', #171, 1000.000000000000000 ) ;
#2 = CARTESIAN_POINT ( 'NONE',  ( 4.750000000000000000, 14.99999999999999800, 15.00000000000000000 ) ) ;
#3 = EDGE_CURVE ( 'NONE', #57, #109, #198, .T. ) ;
#4 = DIRECTION ( 'NONE',  ( 0.0000000000000000000, -1.734723475976807100E-016, 1.000000000000000000 ) ) ;
#5 = DIRECTION ( 'NONE',  ( -1.000000000000000000, -0.0000000000000000000, -0.0000000000000000000 ) ) ;
#6 = ORIENTED_EDGE ( 'NONE', *, *, #39, .F. ) ;
#7 = ORIENTED_EDGE ( 'NONE', *, *, #39, .T. ) ;
#8 = DIRECTION ( 'NONE',  ( -1.000000000000000000, -0.0000000000000000000, -0.0000000000000000000 ) ) ;
#9 = CARTESIAN_POINT ( 'NONE',  ( -4.750000000000000000, 14.99999999999999800, 15.00000000000000000 ) ) ;
#10 = AXIS2_PLACEMENT_3D ( 'NONE', #66, #170, #50 ) ;
#11 = LINE ( 'NONE', #187, #118 ) ;
#12 = LOCAL_TIME ( 16, 53, 40.00000000000000000, #23 ) ;
#13 = LINE ( 'NONE', #106, #1 ) ;
#14 = CARTESIAN_POINT ( 'NONE',  ( 0.0000000000000000000, 0.0000000000000000000, 0.0000000000000000000 ) ) ;
#15 = CALENDAR_DATE ( 2018, 12, 3 ) ;
#16 = APPROVAL ( #71, 'UNSPECIFIED' ) ;
#17 = VECTOR ( 'NONE', #188, 1000.000000000000000 ) ;
#18 = CALENDAR_DATE ( 2018, 12, 3 ) ;
#19 = EDGE_CURVE ( 'NONE', #109, #126, #55, .T. ) ;
#20 = CARTESIAN_POINT ( 'NONE',  ( 4.750000000000000000, 14.99999999999999800, -15.00000000000000000 ) ) ;
#21 = VERTEX_POINT ( 'NONE', #191 ) ;
#22 = ORIENTED_EDGE ( 'NONE', *, *, #209, .T. ) ;
#23 = COORDINATED_UNIVERSAL_TIME_OFFSET ( 5, 0, .BEHIND. ) ;
#24 = CARTESIAN_POINT ( 'NONE',  ( 4.750000000000000000, -15.00000000000000200, -15.00000000000000500 ) ) ;
#25 = DIRECTION ( 'NONE',  ( 0.0000000000000000000, -1.000000000000000000, -1.734723475976807100E-016 ) ) ;
#26 = ORIENTED_EDGE ( 'NONE', *, *, #93, .T. ) ;
#27 = FACE_OUTER_BOUND ( 'NONE', #231, .T. ) ;
#28 = DIRECTION ( 'NONE',  ( 1.000000000000000000, 0.0000000000000000000, 0.0000000000000000000 ) ) ;
#29 = EDGE_CURVE ( 'NONE', #87, #56, #11, .T. ) ;
#30 = SHAPE_DEFINITION_REPRESENTATION ( #69, #116 ) ;
#31 = DIRECTION ( 'NONE',  ( -1.000000000000000000, -0.0000000000000000000, -0.0000000000000000000 ) ) ;
#32 = DIRECTION ( 'NONE',  ( 0.0000000000000000000, 0.0000000000000000000, 1.000000000000000000 ) ) ;
#33 = VECTOR ( 'NONE', #149, 1000.000000000000000 ) ;
#34 = ORIENTED_EDGE ( 'NONE', *, *, #209, .F. ) ;
#35 = DATE_AND_TIME ( #52, #174 ) ;
#36 =( NAMED_UNIT ( * ) SI_UNIT ( $, .STERADIAN. ) SOLID_ANGLE_UNIT ( ) );
#37 = APPLICATION_CONTEXT ( 'configuration controlled 3d designs of mechanical parts and assemblies' ) ;
#38 = ORIENTED_EDGE ( 'NONE', *, *, #182, .F. ) ;
#39 = EDGE_CURVE ( 'NONE', #56, #42, #91, .T. ) ;
#40 = VECTOR ( 'NONE', #31, 1000.000000000000000 ) ;
#41 = DATE_AND_TIME ( #18, #64 ) ;
#42 = VERTEX_POINT ( 'NONE', #46 ) ;
#43 = CC_DESIGN_APPROVAL ( #16, ( #219 ) ) ;
#44 = ORIENTED_EDGE ( 'NONE', *, *, #234, .F. ) ;
#45 = CARTESIAN_POINT ( 'NONE',  ( -4.750000000000000000, -15.00000000000000200, -15.00000000000000500 ) ) ;
#46 = CARTESIAN_POINT ( 'NONE',  ( -4.750000000000000000, 14.99999999999999800, 15.00000000000000000 ) ) ;
#47 = PLANE ( 'NONE',  #177 ) ;
#48 = VERTEX_POINT ( 'NONE', #120 ) ;
#49 =( GEOMETRIC_REPRESENTATION_CONTEXT ( 3 ) GLOBAL_UNCERTAINTY_ASSIGNED_CONTEXT ( ( #237 ) ) GLOBAL_UNIT_ASSIGNED_CONTEXT ( ( #136, #108, #36 ) ) REPRESENTATION_CONTEXT ( 'NONE', 'WORKASPACE' ) );
#50 = DIRECTION ( 'NONE',  ( 0.0000000000000000000, 0.0000000000000000000, -1.000000000000000000 ) ) ;
#51 = FACE_OUTER_BOUND ( 'NONE', #190, .T. ) ;
#52 = CALENDAR_DATE ( 2018, 12, 3 ) ;
#53 = APPLICATION_CONTEXT ( 'configuration controlled 3d designs of mechanical parts and assemblies' ) ;
#54 = APPROVAL_ROLE ( '' ) ;
#55 = LINE ( 'NONE', #224, #142 ) ;
#56 = VERTEX_POINT ( 'NONE', #168 ) ;
#57 = VERTEX_POINT ( 'NONE', #24 ) ;
#58 = ADVANCED_FACE ( 'NONE', ( #27 ), #148, .F. ) ;
#59 = ORIENTED_EDGE ( 'NONE', *, *, #153, .T. ) ;
#60 = DIRECTION ( 'NONE',  ( 0.0000000000000000000, -1.000000000000000000, 0.0000000000000000000 ) ) ;
#61 = VECTOR ( 'NONE', #138, 1000.000000000000000 ) ;
#62 = PERSON_AND_ORGANIZATION ( #119, #104 ) ;
#63 = LINE ( 'NONE', #210, #98 ) ;
#64 = LOCAL_TIME ( 16, 53, 40.00000000000000000, #76 ) ;
#65 = AXIS2_PLACEMENT_3D ( 'NONE', #68, #28, #139 ) ;
#66 = CARTESIAN_POINT ( 'NONE',  ( 4.750000000000000000, 0.0000000000000000000, 0.0000000000000000000 ) ) ;
#67 = PLANE ( 'NONE',  #65 ) ;
#68 = CARTESIAN_POINT ( 'NONE',  ( -4.750000000000000000, 0.0000000000000000000, 0.0000000000000000000 ) ) ;
#69 = PRODUCT_DEFINITION_SHAPE ( 'NONE', 'NONE',  #103 ) ;
#70 = DATE_TIME_ROLE ( 'classification_date' ) ;
#71 = APPROVAL_STATUS ( 'not_yet_approved' ) ;
#72 = CC_DESIGN_PERSON_AND_ORGANIZATION_ASSIGNMENT ( #115, #158, ( #184 ) ) ;
#73 = FACE_OUTER_BOUND ( 'NONE', #226, .T. ) ;
#74 = ORIENTED_EDGE ( 'NONE', *, *, #3, .F. ) ;
#75 = DATE_TIME_ROLE ( 'creation_date' ) ;
#76 = COORDINATED_UNIVERSAL_TIME_OFFSET ( 5, 0, .BEHIND. ) ;
#77 = SECURITY_CLASSIFICATION_LEVEL ( 'unclassified' ) ;
#78 = APPROVAL_ROLE ( '' ) ;
#79 = EDGE_LOOP ( 'NONE', ( #175, #44, #34, #105 ) ) ;
#80 = ORIENTED_EDGE ( 'NONE', *, *, #167, .F. ) ;
#81 = ADVANCED_FACE ( 'NONE', ( #95 ), #206, .F. ) ;
#82 = ORIENTED_EDGE ( 'NONE', *, *, #204, .T. ) ;
#83 = LOCAL_TIME ( 16, 53, 40.00000000000000000, #196 ) ;
#84 = APPROVAL ( #173, 'UNSPECIFIED' ) ;
#85 = DESIGN_CONTEXT ( 'detailed design', #37, 'design' ) ;
#86 = PERSON_AND_ORGANIZATION ( #119, #104 ) ;
#87 = VERTEX_POINT ( 'NONE', #45 ) ;
#88 = PRODUCT_DEFINITION_FORMATION_WITH_SPECIFIED_SOURCE ( 'ANY', '', #184, .NOT_KNOWN. ) ;
#89 = DIRECTION ( 'NONE',  ( 0.0000000000000000000, -1.000000000000000000, 1.734723475976807100E-016 ) ) ;
#90 = FACE_OUTER_BOUND ( 'NONE', #127, .T. ) ;
#91 = LINE ( 'NONE', #227, #33 ) ;
#92 = CARTESIAN_POINT ( 'NONE',  ( 4.750000000000000000, 14.99999999999999800, 15.00000000000000000 ) ) ;
#93 = EDGE_CURVE ( 'NONE', #42, #48, #195, .T. ) ;
#94 = DIRECTION ( 'NONE',  ( -1.000000000000000000, -0.0000000000000000000, -0.0000000000000000000 ) ) ;
#95 = FACE_OUTER_BOUND ( 'NONE', #101, .T. ) ;
#96 = ORIENTED_EDGE ( 'NONE', *, *, #19, .F. ) ;
#97 = APPROVAL_STATUS ( 'not_yet_approved' ) ;
#98 = VECTOR ( 'NONE', #94, 1000.000000000000000 ) ;
#99 = LINE ( 'NONE', #212, #232 ) ;
#100 = CALENDAR_DATE ( 2018, 12, 3 ) ;
#101 = EDGE_LOOP ( 'NONE', ( #102, #163, #74, #154 ) ) ;
#102 = ORIENTED_EDGE ( 'NONE', *, *, #29, .T. ) ;
#103 = PRODUCT_DEFINITION ( 'UNKNOWN', '', #88, #85 ) ;
#104 = ORGANIZATION ( 'UNSPECIFIED', 'UNSPECIFIED', '' ) ;
#105 = ORIENTED_EDGE ( 'NONE', *, *, #167, .T. ) ;
#106 = CARTESIAN_POINT ( 'NONE',  ( -4.750000000000000000, -15.00000000000000200, 15.00000000000000500 ) ) ;
#107 = PLANE ( 'NONE',  #10 ) ;
#108 =( NAMED_UNIT ( * ) PLANE_ANGLE_UNIT ( ) SI_UNIT ( $, .RADIAN. ) );
#109 = VERTEX_POINT ( 'NONE', #124 ) ;
#110 = AXIS2_PLACEMENT_3D ( 'NONE', #229, #194, #230 ) ;
#111 = COORDINATED_UNIVERSAL_TIME_OFFSET ( 5, 0, .BEHIND. ) ;
#112 = CC_DESIGN_SECURITY_CLASSIFICATION ( #219, ( #88 ) ) ;
#113 = ORIENTED_EDGE ( 'NONE', *, *, #3, .T. ) ;
#114 = FACE_OUTER_BOUND ( 'NONE', #79, .T. ) ;
#115 = PERSON_AND_ORGANIZATION ( #119, #104 ) ;
#116 = ADVANCED_BREP_SHAPE_REPRESENTATION ( 'Web Model 48427_48427', ( #150, #162 ), #49 ) ;
#117 = APPROVAL_DATE_TIME ( #221, #84 ) ;
#118 = VECTOR ( 'NONE', #145, 1000.000000000000000 ) ;
#119 = PERSON ( 'UNSPECIFIED', 'UNSPECIFIED', 'UNSPECIFIED', ('UNSPECIFIED'), ('UNSPECIFIED'), ('UNSPECIFIED') ) ;
#120 = CARTESIAN_POINT ( 'NONE',  ( -4.750000000000000000, -15.00000000000000200, 15.00000000000000500 ) ) ;
#121 = CARTESIAN_POINT ( 'NONE',  ( 4.750000000000000000, 14.99999999999999800, -15.00000000000000000 ) ) ;
#122 = APPROVAL_DATE_TIME ( #161, #151 ) ;
#123 = CARTESIAN_POINT ( 'NONE',  ( 4.750000000000000000, -15.00000000000000200, -15.00000000000000500 ) ) ;
#124 = CARTESIAN_POINT ( 'NONE',  ( 4.750000000000000000, 14.99999999999999800, -15.00000000000000000 ) ) ;
#125 = CARTESIAN_POINT ( 'NONE',  ( 4.750000000000000000, 14.99999999999999800, 15.00000000000000000 ) ) ;
#126 = VERTEX_POINT ( 'NONE', #92 ) ;
#127 = EDGE_LOOP ( 'NONE', ( #26, #80, #217, #59 ) ) ;
#128 = PRODUCT_RELATED_PRODUCT_CATEGORY ( 'detail', '', ( #184 ) ) ;
#129 = APPROVAL_PERSON_ORGANIZATION ( #86, #151, #78 ) ;
#130 = PERSON_AND_ORGANIZATION_ROLE ( 'design_supplier' ) ;
#131 = AXIS2_PLACEMENT_3D ( 'NONE', #121, #4, #25 ) ;
#132 = LINE ( 'NONE', #125, #181 ) ;
#133 = PERSON_AND_ORGANIZATION ( #119, #104 ) ;
#134 = ORIENTED_EDGE ( 'NONE', *, *, #19, .T. ) ;
#135 = CARTESIAN_POINT ( 'NONE',  ( 4.750000000000000000, -15.00000000000000200, 15.00000000000000500 ) ) ;
#136 =( LENGTH_UNIT ( ) NAMED_UNIT ( * ) SI_UNIT ( .MILLI., .METRE. ) );
#137 = CARTESIAN_POINT ( 'NONE',  ( 4.750000000000000000, 14.99999999999999800, 15.00000000000000000 ) ) ;
#138 = DIRECTION ( 'NONE',  ( 0.0000000000000000000, 0.0000000000000000000, -1.000000000000000000 ) ) ;
#139 = DIRECTION ( 'NONE',  ( 0.0000000000000000000, 0.0000000000000000000, -1.000000000000000000 ) ) ;
#140 = APPLICATION_PROTOCOL_DEFINITION ( 'international standard', 'config_control_design', 1994, #53 ) ;
#141 = AXIS2_PLACEMENT_3D ( 'NONE', #2, #60, #186 ) ;
#142 = VECTOR ( 'NONE', #166, 1000.000000000000000 ) ;
#143 = PERSON_AND_ORGANIZATION ( #119, #104 ) ;
#144 = CC_DESIGN_PERSON_AND_ORGANIZATION_ASSIGNMENT ( #143, #197, ( #88 ) ) ;
#145 = DIRECTION ( 'NONE',  ( -0.0000000000000000000, 1.000000000000000000, 1.734723475976807100E-016 ) ) ;
#146 = ORIENTED_EDGE ( 'NONE', *, *, #222, .T. ) ;
#147 = LOCAL_TIME ( 16, 53, 40.00000000000000000, #214 ) ;
#148 = PLANE ( 'NONE',  #141 ) ;
#149 = DIRECTION ( 'NONE',  ( -0.0000000000000000000, -0.0000000000000000000, 1.000000000000000000 ) ) ;
#150 = MANIFOLD_SOLID_BREP ( 'Boss-Extrude1', #215 ) ;
#151 = APPROVAL ( #97, 'UNSPECIFIED' ) ;
#152 = DIRECTION ( 'NONE',  ( 0.0000000000000000000, -1.000000000000000000, 1.734723475976807100E-016 ) ) ;
#153 = EDGE_CURVE ( 'NONE', #126, #42, #132, .T. ) ;
#154 = ORIENTED_EDGE ( 'NONE', *, *, #234, .T. ) ;
#155 = VECTOR ( 'NONE', #89, 1000.000000000000000 ) ;
#156 = ORIENTED_EDGE ( 'NONE', *, *, #93, .F. ) ;
#157 = APPLICATION_PROTOCOL_DEFINITION ( 'international standard', 'config_control_design', 1994, #37 ) ;
#158 = PERSON_AND_ORGANIZATION_ROLE ( 'design_owner' ) ;
#159 = PERSON_AND_ORGANIZATION ( #119, #104 ) ;
#160 = APPROVAL_DATE_TIME ( #35, #16 ) ;
#161 = DATE_AND_TIME ( #15, #147 ) ;
#162 = AXIS2_PLACEMENT_3D ( 'NONE', #14, #32, #200 ) ;
#163 = ORIENTED_EDGE ( 'NONE', *, *, #222, .F. ) ;
#164 = ORIENTED_EDGE ( 'NONE', *, *, #29, .F. ) ;
#165 = CC_DESIGN_PERSON_AND_ORGANIZATION_ASSIGNMENT ( #133, #176, ( #103 ) ) ;
#166 = DIRECTION ( 'NONE',  ( -0.0000000000000000000, -0.0000000000000000000, 1.000000000000000000 ) ) ;
#167 = EDGE_CURVE ( 'NONE', #21, #48, #63, .T. ) ;
#168 = CARTESIAN_POINT ( 'NONE',  ( -4.750000000000000000, 14.99999999999999800, -15.00000000000000000 ) ) ;
#169 = CARTESIAN_POINT ( 'NONE',  ( 4.750000000000000000, 14.99999999999999800, 15.00000000000000000 ) ) ;
#170 = DIRECTION ( 'NONE',  ( 1.000000000000000000, 0.0000000000000000000, 0.0000000000000000000 ) ) ;
#171 = DIRECTION ( 'NONE',  ( 0.0000000000000000000, 0.0000000000000000000, -1.000000000000000000 ) ) ;
#172 = PLANE ( 'NONE',  #110 ) ;
#173 = APPROVAL_STATUS ( 'not_yet_approved' ) ;
#174 = LOCAL_TIME ( 16, 53, 40.00000000000000000, #111 ) ;
#175 = ORIENTED_EDGE ( 'NONE', *, *, #182, .T. ) ;
#176 = PERSON_AND_ORGANIZATION_ROLE ( 'creator' ) ;
#177 = AXIS2_PLACEMENT_3D ( 'NONE', #169, #193, #208 ) ;
#178 = MECHANICAL_CONTEXT ( 'NONE', #53, 'mechanical' ) ;
#179 = APPROVAL_ROLE ( '' ) ;
#180 = CC_DESIGN_APPROVAL ( #84, ( #103 ) ) ;
#181 = VECTOR ( 'NONE', #5, 1000.000000000000000 ) ;
#182 = EDGE_CURVE ( 'NONE', #48, #87, #13, .T. ) ;
#183 = PERSON_AND_ORGANIZATION ( #119, #104 ) ;
#184 = PRODUCT ( 'Web Model 48427_48427', 'Web Model 48427_48427', '', ( #178 ) ) ;
#185 = ADVANCED_FACE ( 'NONE', ( #51 ), #67, .F. ) ;
#186 = DIRECTION ( 'NONE',  ( 0.0000000000000000000, -0.0000000000000000000, -1.000000000000000000 ) ) ;
#187 = CARTESIAN_POINT ( 'NONE',  ( -4.750000000000000000, 14.99999999999999800, -15.00000000000000000 ) ) ;
#188 = DIRECTION ( 'NONE',  ( -0.0000000000000000000, 1.000000000000000000, 1.734723475976807100E-016 ) ) ;
#189 = CALENDAR_DATE ( 2018, 12, 3 ) ;
#190 = EDGE_LOOP ( 'NONE', ( #156, #6, #164, #38 ) ) ;
#191 = CARTESIAN_POINT ( 'NONE',  ( 4.750000000000000000, -15.00000000000000200, 15.00000000000000500 ) ) ;
#192 = CC_DESIGN_APPROVAL ( #151, ( #88 ) ) ;
#193 = DIRECTION ( 'NONE',  ( 0.0000000000000000000, -1.734723475976807100E-016, -1.000000000000000000 ) ) ;
#194 = DIRECTION ( 'NONE',  ( -0.0000000000000000000, 1.000000000000000000, 0.0000000000000000000 ) ) ;
#195 = LINE ( 'NONE', #9, #225 ) ;
#196 = COORDINATED_UNIVERSAL_TIME_OFFSET ( 5, 0, .BEHIND. ) ;
#197 = PERSON_AND_ORGANIZATION_ROLE ( 'creator' ) ;
#198 = LINE ( 'NONE', #20, #17 ) ;
#199 = PERSON_AND_ORGANIZATION_ROLE ( 'classification_officer' ) ;
#200 = DIRECTION ( 'NONE',  ( 1.000000000000000000, 0.0000000000000000000, 0.0000000000000000000 ) ) ;
#201 = APPROVAL_PERSON_ORGANIZATION ( #62, #84, #54 ) ;
#202 = ADVANCED_FACE ( 'NONE', ( #73 ), #107, .T. ) ;
#203 = LINE ( 'NONE', #137, #155 ) ;
#204 = EDGE_CURVE ( 'NONE', #126, #21, #203, .T. ) ;
#205 = CC_DESIGN_DATE_AND_TIME_ASSIGNMENT ( #233, #75, ( #103 ) ) ;
#206 = PLANE ( 'NONE',  #131 ) ;
#207 = LINE ( 'NONE', #135, #61 ) ;
#208 = DIRECTION ( 'NONE',  ( 0.0000000000000000000, 1.000000000000000000, -1.734723475976807100E-016 ) ) ;
#209 = EDGE_CURVE ( 'NONE', #21, #57, #207, .T. ) ;
#210 = CARTESIAN_POINT ( 'NONE',  ( 4.750000000000000000, -15.00000000000000200, 15.00000000000000500 ) ) ;
#211 = ORIENTED_EDGE ( 'NONE', *, *, #153, .F. ) ;
#212 = CARTESIAN_POINT ( 'NONE',  ( 4.750000000000000000, 14.99999999999999800, -15.00000000000000000 ) ) ;
#213 = APPROVAL_PERSON_ORGANIZATION ( #223, #16, #179 ) ;
#214 = COORDINATED_UNIVERSAL_TIME_OFFSET ( 5, 0, .BEHIND. ) ;
#215 = CLOSED_SHELL ( 'NONE', ( #236, #218, #81, #58, #202, #185 ) ) ;
#216 = CC_DESIGN_PERSON_AND_ORGANIZATION_ASSIGNMENT ( #183, #130, ( #88 ) ) ;
#217 = ORIENTED_EDGE ( 'NONE', *, *, #204, .F. ) ;
#218 = ADVANCED_FACE ( 'NONE', ( #114 ), #172, .F. ) ;
#219 = SECURITY_CLASSIFICATION ( '', '', #77 ) ;
#220 = LINE ( 'NONE', #123, #40 ) ;
#221 = DATE_AND_TIME ( #189, #12 ) ;
#222 = EDGE_CURVE ( 'NONE', #109, #56, #99, .T. ) ;
#223 = PERSON_AND_ORGANIZATION ( #119, #104 ) ;
#224 = CARTESIAN_POINT ( 'NONE',  ( 4.750000000000000000, 14.99999999999999800, 15.00000000000000000 ) ) ;
#225 = VECTOR ( 'NONE', #152, 1000.000000000000000 ) ;
#226 = EDGE_LOOP ( 'NONE', ( #82, #22, #113, #134 ) ) ;
#227 = CARTESIAN_POINT ( 'NONE',  ( -4.750000000000000000, 14.99999999999999800, 15.00000000000000000 ) ) ;
#228 = CC_DESIGN_PERSON_AND_ORGANIZATION_ASSIGNMENT ( #159, #199, ( #219 ) ) ;
#229 = CARTESIAN_POINT ( 'NONE',  ( 4.750000000000000000, -15.00000000000000200, 15.00000000000000500 ) ) ;
#230 = DIRECTION ( 'NONE',  ( 0.0000000000000000000, -0.0000000000000000000, 1.000000000000000000 ) ) ;
#231 = EDGE_LOOP ( 'NONE', ( #7, #211, #96, #146 ) ) ;
#232 = VECTOR ( 'NONE', #8, 1000.000000000000000 ) ;
#233 = DATE_AND_TIME ( #100, #83 ) ;
#234 = EDGE_CURVE ( 'NONE', #57, #87, #220, .T. ) ;
#235 = CC_DESIGN_DATE_AND_TIME_ASSIGNMENT ( #41, #70, ( #219 ) ) ;
#236 = ADVANCED_FACE ( 'NONE', ( #90 ), #47, .F. ) ;
#237 = UNCERTAINTY_MEASURE_WITH_UNIT (LENGTH_MEASURE( 1.000000000000000100E-005 ), #136, 'distance_accuracy_value', 'NONE');
ENDSEC;
END-ISO-10303-21;
