ISO-10303-21;
HEADER;
FILE_DESCRIPTION (( 'STEP AP203' ),
    '1' );
FILE_NAME ('Web Model 48459MX_41025.step',
    '2017-10-30T13:21:19',
    ( '' ),
    ( '' ),
    'SwSTEP 2.0',
    'SolidWorks 2016',
    '' );
FILE_SCHEMA (( 'CONFIG_CONTROL_DESIGN' ));
ENDSEC;

DATA;
#1 = VERTEX_POINT ( 'NONE', #20 ) ;
#2 = EDGE_CURVE ( 'NONE', #97, #17, #43, .T. ) ;
#3 = FACE_OUTER_BOUND ( 'NONE', #219, .T. ) ;
#4 = PLANE ( 'NONE',  #56 ) ;
#5 = SHAPE_DEFINITION_REPRESENTATION ( #169, #49 ) ;
#6 = ORIENTED_EDGE ( 'NONE', *, *, #161, .T. ) ;
#7 = CARTESIAN_POINT ( 'NONE',  ( 24.99999999999999600, -24.99999999999999600, 4.750000000000000000 ) ) ;
#8 = CC_DESIGN_PERSON_AND_ORGANIZATION_ASSIGNMENT ( #39, #126, ( #59 ) ) ;
#9 = DIRECTION ( 'NONE',  ( -0.0000000000000000000, -0.0000000000000000000, -1.000000000000000000 ) ) ;
#10 = APPROVAL_DATE_TIME ( #93, #115 ) ;
#11 = DIRECTION ( 'NONE',  ( 1.000000000000000000, 0.0000000000000000000, -0.0000000000000000000 ) ) ;
#12 = CARTESIAN_POINT ( 'NONE',  ( 24.99999999999999600, -24.99999999999999600, 4.750000000000000000 ) ) ;
#13 = COORDINATED_UNIVERSAL_TIME_OFFSET ( 5, 0, .BEHIND. ) ;
#14 = EDGE_CURVE ( 'NONE', #70, #1, #106, .T. ) ;
#15 = ADVANCED_FACE ( 'NONE', ( #131 ), #4, .F. ) ;
#16 = DATE_AND_TIME ( #25, #147 ) ;
#17 = VERTEX_POINT ( 'NONE', #206 ) ;
#18 = EDGE_CURVE ( 'NONE', #37, #70, #231, .T. ) ;
#19 = APPROVAL_PERSON_ORGANIZATION ( #68, #115, #128 ) ;
#20 = CARTESIAN_POINT ( 'NONE',  ( 24.99999999999999600, 25.00000000000000400, -4.750000000000000000 ) ) ;
#21 = ORIENTED_EDGE ( 'NONE', *, *, #220, .F. ) ;
#22 = DIRECTION ( 'NONE',  ( 1.000000000000000000, 1.387778780781445700E-016, 0.0000000000000000000 ) ) ;
#23 = AXIS2_PLACEMENT_3D ( 'NONE', #207, #227, #229 ) ;
#24 = CARTESIAN_POINT ( 'NONE',  ( -25.00000000000000400, 24.99999999999999600, -4.750000000000000000 ) ) ;
#25 = CALENDAR_DATE ( 2017, 30, 10 ) ;
#26 = ORIENTED_EDGE ( 'NONE', *, *, #190, .F. ) ;
#27 = DIRECTION ( 'NONE',  ( -1.000000000000000000, -1.387778780781445700E-016, 0.0000000000000000000 ) ) ;
#28 = DIRECTION ( 'NONE',  ( -0.0000000000000000000, -1.000000000000000000, -0.0000000000000000000 ) ) ;
#29 = APPROVAL_DATE_TIME ( #163, #202 ) ;
#30 = LOCAL_TIME ( 9, 21, 19.00000000000000000, #35 ) ;
#31 = CC_DESIGN_PERSON_AND_ORGANIZATION_ASSIGNMENT ( #42, #215, ( #149 ) ) ;
#32 = PERSON_AND_ORGANIZATION_ROLE ( 'creator' ) ;
#33 = ORIENTED_EDGE ( 'NONE', *, *, #63, .F. ) ;
#34 = DATE_TIME_ROLE ( 'creation_date' ) ;
#35 = COORDINATED_UNIVERSAL_TIME_OFFSET ( 5, 0, .BEHIND. ) ;
#36 = VECTOR ( 'NONE', #105, 1000.000000000000000 ) ;
#37 = VERTEX_POINT ( 'NONE', #79 ) ;
#38 = CC_DESIGN_APPROVAL ( #202, ( #152 ) ) ;
#39 = PERSON_AND_ORGANIZATION ( #194, #223 ) ;
#40 = ORIENTED_EDGE ( 'NONE', *, *, #14, .T. ) ;
#41 = EDGE_CURVE ( 'NONE', #164, #17, #78, .T. ) ;
#42 = PERSON_AND_ORGANIZATION ( #194, #223 ) ;
#43 = LINE ( 'NONE', #165, #151 ) ;
#44 = DIRECTION ( 'NONE',  ( 0.0000000000000000000, 1.000000000000000000, 0.0000000000000000000 ) ) ;
#45 = ORIENTED_EDGE ( 'NONE', *, *, #228, .T. ) ;
#46 = PLANE ( 'NONE',  #65 ) ;
#47 = CC_DESIGN_PERSON_AND_ORGANIZATION_ASSIGNMENT ( #150, #32, ( #88 ) ) ;
#48 = DIRECTION ( 'NONE',  ( -1.000000000000000000, 0.0000000000000000000, 0.0000000000000000000 ) ) ;
#49 = ADVANCED_BREP_SHAPE_REPRESENTATION ( 'Web Model 48459MX_41025', ( #177, #141 ), #130 ) ;
#50 = CARTESIAN_POINT ( 'NONE',  ( -25.00000000000000400, -25.00000000000000400, 4.750000000000000000 ) ) ;
#51 = DIRECTION ( 'NONE',  ( 1.000000000000000000, 0.0000000000000000000, 0.0000000000000000000 ) ) ;
#52 = CC_DESIGN_APPROVAL ( #122, ( #149 ) ) ;
#53 = CC_DESIGN_PERSON_AND_ORGANIZATION_ASSIGNMENT ( #218, #232, ( #152 ) ) ;
#54 = ORIENTED_EDGE ( 'NONE', *, *, #63, .T. ) ;
#55 = PERSON_AND_ORGANIZATION_ROLE ( 'design_supplier' ) ;
#56 = AXIS2_PLACEMENT_3D ( 'NONE', #61, #221, #22 ) ;
#57 = VECTOR ( 'NONE', #27, 1000.000000000000000 ) ;
#58 = CALENDAR_DATE ( 2017, 30, 10 ) ;
#59 = PRODUCT ( 'Web Model 48459MX_41025', 'Web Model 48459MX_41025', '', ( #90 ) ) ;
#60 = VECTOR ( 'NONE', #82, 1000.000000000000000 ) ;
#61 = CARTESIAN_POINT ( 'NONE',  ( 24.99999999999999600, 25.00000000000000400, 4.750000000000000000 ) ) ;
#62 = LOCAL_TIME ( 9, 21, 19.00000000000000000, #113 ) ;
#63 = EDGE_CURVE ( 'NONE', #1, #97, #196, .T. ) ;
#64 = PLANE ( 'NONE',  #102 ) ;
#65 = AXIS2_PLACEMENT_3D ( 'NONE', #80, #66, #104 ) ;
#66 = DIRECTION ( 'NONE',  ( -1.387778780781445700E-016, 1.000000000000000000, 0.0000000000000000000 ) ) ;
#67 = DIRECTION ( 'NONE',  ( 1.000000000000000000, 0.0000000000000000000, 0.0000000000000000000 ) ) ;
#68 = PERSON_AND_ORGANIZATION ( #194, #223 ) ;
#69 = SECURITY_CLASSIFICATION_LEVEL ( 'unclassified' ) ;
#70 = VERTEX_POINT ( 'NONE', #225 ) ;
#71 = ADVANCED_FACE ( 'NONE', ( #3 ), #121, .F. ) ;
#72 = ADVANCED_FACE ( 'NONE', ( #203 ), #212, .F. ) ;
#73 = LINE ( 'NONE', #12, #192 ) ;
#74 = ORIENTED_EDGE ( 'NONE', *, *, #2, .T. ) ;
#75 = AXIS2_PLACEMENT_3D ( 'NONE', #7, #48, #138 ) ;
#76 = COORDINATED_UNIVERSAL_TIME_OFFSET ( 5, 0, .BEHIND. ) ;
#77 = VERTEX_POINT ( 'NONE', #209 ) ;
#78 = LINE ( 'NONE', #157, #185 ) ;
#79 = CARTESIAN_POINT ( 'NONE',  ( 24.99999999999999600, -24.99999999999999600, 4.750000000000000000 ) ) ;
#80 = CARTESIAN_POINT ( 'NONE',  ( 24.99999999999999600, -24.99999999999999600, 4.750000000000000000 ) ) ;
#81 = ORIENTED_EDGE ( 'NONE', *, *, #116, .T. ) ;
#82 = DIRECTION ( 'NONE',  ( -0.0000000000000000000, -0.0000000000000000000, -1.000000000000000000 ) ) ;
#83 = CARTESIAN_POINT ( 'NONE',  ( 24.99999999999999600, -24.99999999999999600, 4.750000000000000000 ) ) ;
#84 = CARTESIAN_POINT ( 'NONE',  ( -25.00000000000000400, -25.00000000000000400, 4.750000000000000000 ) ) ;
#85 = DIRECTION ( 'NONE',  ( 0.0000000000000000000, -0.0000000000000000000, 1.000000000000000000 ) ) ;
#86 = EDGE_LOOP ( 'NONE', ( #54, #184, #148, #114 ) ) ;
#87 = APPROVAL_STATUS ( 'not_yet_approved' ) ;
#88 = PRODUCT_DEFINITION_FORMATION_WITH_SPECIFIED_SOURCE ( 'ANY', '', #59, .NOT_KNOWN. ) ;
#89 = FACE_OUTER_BOUND ( 'NONE', #187, .T. ) ;
#90 = MECHANICAL_CONTEXT ( 'NONE', #197, 'mechanical' ) ;
#91 = ORIENTED_EDGE ( 'NONE', *, *, #161, .F. ) ;
#92 = DIRECTION ( 'NONE',  ( 0.0000000000000000000, 0.0000000000000000000, 1.000000000000000000 ) ) ;
#93 = DATE_AND_TIME ( #58, #62 ) ;
#94 = VECTOR ( 'NONE', #28, 1000.000000000000000 ) ;
#95 = DESIGN_CONTEXT ( 'detailed design', #158, 'design' ) ;
#96 = DATE_AND_TIME ( #234, #144 ) ;
#97 = VERTEX_POINT ( 'NONE', #24 ) ;
#98 = CC_DESIGN_DATE_AND_TIME_ASSIGNMENT ( #96, #34, ( #152 ) ) ;
#99 = LINE ( 'NONE', #156, #112 ) ;
#100 = CARTESIAN_POINT ( 'NONE',  ( 24.99999999999999600, -24.99999999999999600, -4.750000000000000000 ) ) ;
#101 = LINE ( 'NONE', #137, #205 ) ;
#102 = AXIS2_PLACEMENT_3D ( 'NONE', #50, #51, #188 ) ;
#103 = EDGE_LOOP ( 'NONE', ( #74, #168, #26, #132 ) ) ;
#104 = DIRECTION ( 'NONE',  ( -1.000000000000000000, -1.387778780781445700E-016, 0.0000000000000000000 ) ) ;
#105 = DIRECTION ( 'NONE',  ( -0.0000000000000000000, -0.0000000000000000000, -1.000000000000000000 ) ) ;
#106 = LINE ( 'NONE', #100, #237 ) ;
#107 = DIRECTION ( 'NONE',  ( -0.0000000000000000000, -0.0000000000000000000, -1.000000000000000000 ) ) ;
#108 = DIRECTION ( 'NONE',  ( 1.000000000000000000, 1.387778780781445700E-016, -0.0000000000000000000 ) ) ;
#109 = DATE_TIME_ROLE ( 'classification_date' ) ;
#110 = CARTESIAN_POINT ( 'NONE',  ( 0.0000000000000000000, 0.0000000000000000000, 0.0000000000000000000 ) ) ;
#111 = CC_DESIGN_DATE_AND_TIME_ASSIGNMENT ( #222, #109, ( #149 ) ) ;
#112 = VECTOR ( 'NONE', #191, 1000.000000000000000 ) ;
#113 = COORDINATED_UNIVERSAL_TIME_OFFSET ( 5, 0, .BEHIND. ) ;
#114 = ORIENTED_EDGE ( 'NONE', *, *, #220, .T. ) ;
#115 = APPROVAL ( #179, 'UNSPECIFIED' ) ;
#116 = EDGE_CURVE ( 'NONE', #37, #160, #73, .T. ) ;
#117 = COORDINATED_UNIVERSAL_TIME_OFFSET ( 5, 0, .BEHIND. ) ;
#118 = ORIENTED_EDGE ( 'NONE', *, *, #217, .F. ) ;
#119 = CARTESIAN_POINT ( 'NONE',  ( 24.99999999999999600, -24.99999999999999600, 4.750000000000000000 ) ) ;
#120 = CARTESIAN_POINT ( 'NONE',  ( 24.99999999999999600, -24.99999999999999600, -4.750000000000000000 ) ) ;
#121 = PLANE ( 'NONE',  #198 ) ;
#122 = APPROVAL ( #87, 'UNSPECIFIED' ) ;
#123 = ORIENTED_EDGE ( 'NONE', *, *, #2, .F. ) ;
#124 = LINE ( 'NONE', #84, #94 ) ;
#125 = EDGE_LOOP ( 'NONE', ( #178, #6, #81, #45 ) ) ;
#126 = PERSON_AND_ORGANIZATION_ROLE ( 'design_owner' ) ;
#127 = APPLICATION_PROTOCOL_DEFINITION ( 'international standard', 'config_control_design', 1994, #158 ) ;
#128 = APPROVAL_ROLE ( '' ) ;
#129 = ORIENTED_EDGE ( 'NONE', *, *, #41, .T. ) ;
#130 =( GEOMETRIC_REPRESENTATION_CONTEXT ( 3 ) GLOBAL_UNCERTAINTY_ASSIGNED_CONTEXT ( ( #136 ) ) GLOBAL_UNIT_ASSIGNED_CONTEXT ( ( #199, #235, #143 ) ) REPRESENTATION_CONTEXT ( 'NONE', 'WORKASPACE' ) );
#131 = FACE_OUTER_BOUND ( 'NONE', #86, .T. ) ;
#132 = ORIENTED_EDGE ( 'NONE', *, *, #180, .T. ) ;
#133 = FACE_OUTER_BOUND ( 'NONE', #103, .T. ) ;
#134 = CC_DESIGN_APPROVAL ( #115, ( #88 ) ) ;
#135 = CLOSED_SHELL ( 'NONE', ( #236, #146, #72, #15, #162, #71 ) ) ;
#136 = UNCERTAINTY_MEASURE_WITH_UNIT (LENGTH_MEASURE( 1.000000000000000100E-005 ), #199, 'distance_accuracy_value', 'NONE');
#137 = CARTESIAN_POINT ( 'NONE',  ( -25.00000000000000400, 24.99999999999999600, 4.750000000000000000 ) ) ;
#138 = DIRECTION ( 'NONE',  ( 0.0000000000000000000, 0.0000000000000000000, 1.000000000000000000 ) ) ;
#139 = LINE ( 'NONE', #83, #159 ) ;
#140 = DIRECTION ( 'NONE',  ( 1.000000000000000000, 1.387778780781445700E-016, -0.0000000000000000000 ) ) ;
#141 = AXIS2_PLACEMENT_3D ( 'NONE', #110, #92, #67 ) ;
#142 = APPROVAL_ROLE ( '' ) ;
#143 =( NAMED_UNIT ( * ) SI_UNIT ( $, .STERADIAN. ) SOLID_ANGLE_UNIT ( ) );
#144 = LOCAL_TIME ( 9, 21, 19.00000000000000000, #117 ) ;
#145 = ORIENTED_EDGE ( 'NONE', *, *, #14, .F. ) ;
#146 = ADVANCED_FACE ( 'NONE', ( #89 ), #46, .F. ) ;
#147 = LOCAL_TIME ( 9, 21, 19.00000000000000000, #76 ) ;
#148 = ORIENTED_EDGE ( 'NONE', *, *, #228, .F. ) ;
#149 = SECURITY_CLASSIFICATION ( '', '', #69 ) ;
#150 = PERSON_AND_ORGANIZATION ( #194, #223 ) ;
#151 = VECTOR ( 'NONE', #153, 1000.000000000000000 ) ;
#152 = PRODUCT_DEFINITION ( 'UNKNOWN', '', #88, #95 ) ;
#153 = DIRECTION ( 'NONE',  ( -0.0000000000000000000, -1.000000000000000000, -0.0000000000000000000 ) ) ;
#154 = ORIENTED_EDGE ( 'NONE', *, *, #18, .F. ) ;
#155 = CARTESIAN_POINT ( 'NONE',  ( 24.99999999999999600, 25.00000000000000400, -4.750000000000000000 ) ) ;
#156 = CARTESIAN_POINT ( 'NONE',  ( 24.99999999999999600, 25.00000000000000400, 4.750000000000000000 ) ) ;
#157 = CARTESIAN_POINT ( 'NONE',  ( -25.00000000000000400, -25.00000000000000400, 4.750000000000000000 ) ) ;
#158 = APPLICATION_CONTEXT ( 'configuration controlled 3d designs of mechanical parts and assemblies' ) ;
#159 = VECTOR ( 'NONE', #140, 1000.000000000000000 ) ;
#160 = VERTEX_POINT ( 'NONE', #189 ) ;
#161 = EDGE_CURVE ( 'NONE', #164, #37, #139, .T. ) ;
#162 = ADVANCED_FACE ( 'NONE', ( #167 ), #211, .T. ) ;
#163 = DATE_AND_TIME ( #186, #174 ) ;
#164 = VERTEX_POINT ( 'NONE', #226 ) ;
#165 = CARTESIAN_POINT ( 'NONE',  ( -25.00000000000000400, -25.00000000000000400, -4.750000000000000000 ) ) ;
#166 = CALENDAR_DATE ( 2017, 30, 10 ) ;
#167 = FACE_OUTER_BOUND ( 'NONE', #125, .T. ) ;
#168 = ORIENTED_EDGE ( 'NONE', *, *, #41, .F. ) ;
#169 = PRODUCT_DEFINITION_SHAPE ( 'NONE', 'NONE',  #152 ) ;
#170 = ORIENTED_EDGE ( 'NONE', *, *, #18, .T. ) ;
#171 = PRODUCT_RELATED_PRODUCT_CATEGORY ( 'detail', '', ( #59 ) ) ;
#172 = DIRECTION ( 'NONE',  ( 0.0000000000000000000, 1.000000000000000000, 0.0000000000000000000 ) ) ;
#173 = PERSON_AND_ORGANIZATION ( #194, #223 ) ;
#174 = LOCAL_TIME ( 9, 21, 19.00000000000000000, #13 ) ;
#175 = CARTESIAN_POINT ( 'NONE',  ( 24.99999999999999600, 25.00000000000000400, 4.750000000000000000 ) ) ;
#176 = CC_DESIGN_SECURITY_CLASSIFICATION ( #149, ( #88 ) ) ;
#177 = MANIFOLD_SOLID_BREP ( 'Boss-Extrude1', #135 ) ;
#178 = ORIENTED_EDGE ( 'NONE', *, *, #190, .T. ) ;
#179 = APPROVAL_STATUS ( 'not_yet_approved' ) ;
#180 = EDGE_CURVE ( 'NONE', #77, #97, #101, .T. ) ;
#181 = APPROVAL_PERSON_ORGANIZATION ( #173, #122, #142 ) ;
#182 = LINE ( 'NONE', #120, #224 ) ;
#183 = PERSON_AND_ORGANIZATION ( #194, #223 ) ;
#184 = ORIENTED_EDGE ( 'NONE', *, *, #180, .F. ) ;
#185 = VECTOR ( 'NONE', #107, 1000.000000000000000 ) ;
#186 = CALENDAR_DATE ( 2017, 30, 10 ) ;
#187 = EDGE_LOOP ( 'NONE', ( #213, #154, #91, #129 ) ) ;
#188 = DIRECTION ( 'NONE',  ( 0.0000000000000000000, 0.0000000000000000000, -1.000000000000000000 ) ) ;
#189 = CARTESIAN_POINT ( 'NONE',  ( 24.99999999999999600, 25.00000000000000400, 4.750000000000000000 ) ) ;
#190 = EDGE_CURVE ( 'NONE', #77, #164, #124, .T. ) ;
#191 = DIRECTION ( 'NONE',  ( -1.000000000000000000, -1.387778780781445700E-016, 0.0000000000000000000 ) ) ;
#192 = VECTOR ( 'NONE', #172, 1000.000000000000000 ) ;
#193 = CARTESIAN_POINT ( 'NONE',  ( 0.0000000000000000000, 0.0000000000000000000, -4.750000000000000000 ) ) ;
#194 = PERSON ( 'UNSPECIFIED', 'UNSPECIFIED', 'UNSPECIFIED', ('UNSPECIFIED'), ('UNSPECIFIED'), ('UNSPECIFIED') ) ;
#195 = APPROVAL_ROLE ( '' ) ;
#196 = LINE ( 'NONE', #155, #57 ) ;
#197 = APPLICATION_CONTEXT ( 'configuration controlled 3d designs of mechanical parts and assemblies' ) ;
#198 = AXIS2_PLACEMENT_3D ( 'NONE', #193, #85, #11 ) ;
#199 =( LENGTH_UNIT ( ) NAMED_UNIT ( * ) SI_UNIT ( .MILLI., .METRE. ) );
#200 = PERSON_AND_ORGANIZATION ( #194, #223 ) ;
#201 = APPROVAL_PERSON_ORGANIZATION ( #183, #202, #195 ) ;
#202 = APPROVAL ( #214, 'UNSPECIFIED' ) ;
#203 = FACE_OUTER_BOUND ( 'NONE', #216, .T. ) ;
#204 = LINE ( 'NONE', #175, #36 ) ;
#205 = VECTOR ( 'NONE', #9, 1000.000000000000000 ) ;
#206 = CARTESIAN_POINT ( 'NONE',  ( -25.00000000000000400, -25.00000000000000400, -4.750000000000000000 ) ) ;
#207 = CARTESIAN_POINT ( 'NONE',  ( 0.0000000000000000000, 0.0000000000000000000, 4.750000000000000000 ) ) ;
#208 = CC_DESIGN_PERSON_AND_ORGANIZATION_ASSIGNMENT ( #200, #55, ( #88 ) ) ;
#209 = CARTESIAN_POINT ( 'NONE',  ( -25.00000000000000400, 24.99999999999999600, 4.750000000000000000 ) ) ;
#210 = ORIENTED_EDGE ( 'NONE', *, *, #116, .F. ) ;
#211 = PLANE ( 'NONE',  #23 ) ;
#212 = PLANE ( 'NONE',  #75 ) ;
#213 = ORIENTED_EDGE ( 'NONE', *, *, #217, .T. ) ;
#214 = APPROVAL_STATUS ( 'not_yet_approved' ) ;
#215 = PERSON_AND_ORGANIZATION_ROLE ( 'classification_officer' ) ;
#216 = EDGE_LOOP ( 'NONE', ( #40, #21, #210, #170 ) ) ;
#217 = EDGE_CURVE ( 'NONE', #17, #70, #182, .T. ) ;
#218 = PERSON_AND_ORGANIZATION ( #194, #223 ) ;
#219 = EDGE_LOOP ( 'NONE', ( #123, #33, #145, #118 ) ) ;
#220 = EDGE_CURVE ( 'NONE', #160, #1, #204, .T. ) ;
#221 = DIRECTION ( 'NONE',  ( 1.387778780781445700E-016, -1.000000000000000000, 0.0000000000000000000 ) ) ;
#222 = DATE_AND_TIME ( #166, #30 ) ;
#223 = ORGANIZATION ( 'UNSPECIFIED', 'UNSPECIFIED', '' ) ;
#224 = VECTOR ( 'NONE', #108, 1000.000000000000000 ) ;
#225 = CARTESIAN_POINT ( 'NONE',  ( 24.99999999999999600, -24.99999999999999600, -4.750000000000000000 ) ) ;
#226 = CARTESIAN_POINT ( 'NONE',  ( -25.00000000000000400, -25.00000000000000400, 4.750000000000000000 ) ) ;
#227 = DIRECTION ( 'NONE',  ( 0.0000000000000000000, -0.0000000000000000000, 1.000000000000000000 ) ) ;
#228 = EDGE_CURVE ( 'NONE', #160, #77, #99, .T. ) ;
#229 = DIRECTION ( 'NONE',  ( 1.000000000000000000, 0.0000000000000000000, -0.0000000000000000000 ) ) ;
#230 = APPROVAL_DATE_TIME ( #16, #122 ) ;
#231 = LINE ( 'NONE', #119, #60 ) ;
#232 = PERSON_AND_ORGANIZATION_ROLE ( 'creator' ) ;
#233 = APPLICATION_PROTOCOL_DEFINITION ( 'international standard', 'config_control_design', 1994, #197 ) ;
#234 = CALENDAR_DATE ( 2017, 30, 10 ) ;
#235 =( NAMED_UNIT ( * ) PLANE_ANGLE_UNIT ( ) SI_UNIT ( $, .RADIAN. ) );
#236 = ADVANCED_FACE ( 'NONE', ( #133 ), #64, .F. ) ;
#237 = VECTOR ( 'NONE', #44, 1000.000000000000000 ) ;
ENDSEC;
END-ISO-10303-21;
