ISO-10303-21;
HEADER;
FILE_DESCRIPTION (( 'STEP AP203' ),
    '1' );
FILE_NAME ('Web Model 68806_68814.step',
    '2017-03-06T17:47:10',
    ( '' ),
    ( '' ),
    'SwSTEP 2.0',
    'SolidWorks 2016',
    '' );
FILE_SCHEMA (( 'CONFIG_CONTROL_DESIGN' ));
ENDSEC;

DATA;
#1 = VERTEX_POINT ( 'NONE', #19 ) ;
#2 = DIRECTION ( 'NONE',  ( 0.0000000000000000000, 0.0000000000000000000, 1.000000000000000000 ) ) ;
#3 = DIRECTION ( 'NONE',  ( 1.000000000000000000, 0.0000000000000000000, 0.0000000000000000000 ) ) ;
#4 = PERSON_AND_ORGANIZATION ( #69, #9 ) ;
#5 = PRODUCT_RELATED_PRODUCT_CATEGORY ( 'detail', '', ( #56 ) ) ;
#6 = DIRECTION ( 'NONE',  ( 0.0000000000000000000, 0.0000000000000000000, 1.000000000000000000 ) ) ;
#7 = DATE_AND_TIME ( #68, #132 ) ;
#8 = APPROVAL ( #74, 'UNSPECIFIED' ) ;
#9 = ORGANIZATION ( 'UNSPECIFIED', 'UNSPECIFIED', '' ) ;
#10 = CC_DESIGN_SECURITY_CLASSIFICATION ( #52, ( #147 ) ) ;
#11 = CLOSED_SHELL ( 'NONE', ( #60, #42, #144, #146 ) ) ;
#12 = APPROVAL_ROLE ( '' ) ;
#13 = ORIENTED_EDGE ( 'NONE', *, *, #86, .T. ) ;
#14 = CALENDAR_DATE ( 2017, 6, 3 ) ;
#15 = PLANE ( 'NONE',  #100 ) ;
#16 = CARTESIAN_POINT ( 'NONE',  ( 0.0000000000000000000, 0.0000000000000000000, 1.000000000000000000 ) ) ;
#17 = CARTESIAN_POINT ( 'NONE',  ( -10.00000000000000000, 0.0000000000000000000, 1.000000000000000000 ) ) ;
#18 = EDGE_LOOP ( 'NONE', ( #44, #62 ) ) ;
#19 = CARTESIAN_POINT ( 'NONE',  ( 10.00000000000000000, 1.224646799147353300E-015, 1.000000000000000000 ) ) ;
#20 = CC_DESIGN_APPROVAL ( #24, ( #52 ) ) ;
#21 = DATE_AND_TIME ( #84, #149 ) ;
#22 = AXIS2_PLACEMENT_3D ( 'NONE', #16, #95, #3 ) ;
#23 = EDGE_CURVE ( 'NONE', #156, #148, #105, .T. ) ;
#24 = APPROVAL ( #138, 'UNSPECIFIED' ) ;
#25 = DATE_TIME_ROLE ( 'creation_date' ) ;
#26 = DIRECTION ( 'NONE',  ( 0.0000000000000000000, 0.0000000000000000000, 1.000000000000000000 ) ) ;
#27 = DIRECTION ( 'NONE',  ( 1.000000000000000000, 0.0000000000000000000, -0.0000000000000000000 ) ) ;
#28 = AXIS2_PLACEMENT_3D ( 'NONE', #49, #140, #37 ) ;
#29 = APPLICATION_PROTOCOL_DEFINITION ( 'international standard', 'config_control_design', 1994, #96 ) ;
#30 = SECURITY_CLASSIFICATION_LEVEL ( 'unclassified' ) ;
#31 = CALENDAR_DATE ( 2017, 6, 3 ) ;
#32 = CC_DESIGN_DATE_AND_TIME_ASSIGNMENT ( #104, #99, ( #52 ) ) ;
#33 = EDGE_LOOP ( 'NONE', ( #175, #43, #151, #165 ) ) ;
#34 = CALENDAR_DATE ( 2017, 6, 3 ) ;
#35 = APPLICATION_CONTEXT ( 'configuration controlled 3d designs of mechanical parts and assemblies' ) ;
#36 = EDGE_LOOP ( 'NONE', ( #139, #143, #51, #75 ) ) ;
#37 = DIRECTION ( 'NONE',  ( 1.000000000000000000, 0.0000000000000000000, 0.0000000000000000000 ) ) ;
#38 = DIRECTION ( 'NONE',  ( 1.000000000000000000, 0.0000000000000000000, 0.0000000000000000000 ) ) ;
#39 = AXIS2_PLACEMENT_3D ( 'NONE', #48, #26, #153 ) ;
#40 = PERSON_AND_ORGANIZATION_ROLE ( 'design_supplier' ) ;
#41 = COORDINATED_UNIVERSAL_TIME_OFFSET ( 5, 0, .BEHIND. ) ;
#42 = ADVANCED_FACE ( 'NONE', ( #71 ), #79, .T. ) ;
#43 = ORIENTED_EDGE ( 'NONE', *, *, #86, .F. ) ;
#44 = ORIENTED_EDGE ( 'NONE', *, *, #119, .F. ) ;
#45 = LOCAL_TIME ( 12, 47, 10.00000000000000000, #127 ) ;
#46 = CC_DESIGN_PERSON_AND_ORGANIZATION_ASSIGNMENT ( #101, #116, ( #52 ) ) ;
#47 = DATE_AND_TIME ( #14, #45 ) ;
#48 = CARTESIAN_POINT ( 'NONE',  ( 0.0000000000000000000, 0.0000000000000000000, 0.0000000000000000000 ) ) ;
#49 = CARTESIAN_POINT ( 'NONE',  ( 0.0000000000000000000, 0.0000000000000000000, -1.000000000000000000 ) ) ;
#50 = DIRECTION ( 'NONE',  ( 0.0000000000000000000, 0.0000000000000000000, 1.000000000000000000 ) ) ;
#51 = ORIENTED_EDGE ( 'NONE', *, *, #23, .T. ) ;
#52 = SECURITY_CLASSIFICATION ( '', '', #30 ) ;
#53 = CARTESIAN_POINT ( 'NONE',  ( 0.0000000000000000000, 0.0000000000000000000, 1.000000000000000000 ) ) ;
#54 = MANIFOLD_SOLID_BREP ( 'Boss-Extrude1', #11 ) ;
#55 = PERSON_AND_ORGANIZATION ( #69, #9 ) ;
#56 = PRODUCT ( 'Web Model 68806_68814', 'Web Model 68806_68814', '', ( #114 ) ) ;
#57 = CC_DESIGN_PERSON_AND_ORGANIZATION_ASSIGNMENT ( #55, #40, ( #147 ) ) ;
#58 = LOCAL_TIME ( 12, 47, 10.00000000000000000, #172 ) ;
#59 =( NAMED_UNIT ( * ) PLANE_ANGLE_UNIT ( ) SI_UNIT ( $, .RADIAN. ) );
#60 = ADVANCED_FACE ( 'NONE', ( #78 ), #128, .T. ) ;
#61 = CARTESIAN_POINT ( 'NONE',  ( -10.00000000000000000, 0.0000000000000000000, 1.000000000000000000 ) ) ;
#62 = ORIENTED_EDGE ( 'NONE', *, *, #23, .F. ) ;
#63 = CARTESIAN_POINT ( 'NONE',  ( 0.0000000000000000000, 0.0000000000000000000, -1.000000000000000000 ) ) ;
#64 = PERSON_AND_ORGANIZATION ( #69, #9 ) ;
#65 = AXIS2_PLACEMENT_3D ( 'NONE', #131, #163, #109 ) ;
#66 = PERSON_AND_ORGANIZATION_ROLE ( 'creator' ) ;
#67 = CC_DESIGN_PERSON_AND_ORGANIZATION_ASSIGNMENT ( #171, #66, ( #147 ) ) ;
#68 = CALENDAR_DATE ( 2017, 6, 3 ) ;
#69 = PERSON ( 'UNSPECIFIED', 'UNSPECIFIED', 'UNSPECIFIED', ('UNSPECIFIED'), ('UNSPECIFIED'), ('UNSPECIFIED') ) ;
#70 = EDGE_CURVE ( 'NONE', #1, #156, #126, .T. ) ;
#71 = FACE_OUTER_BOUND ( 'NONE', #33, .T. ) ;
#72 = CC_DESIGN_APPROVAL ( #82, ( #147 ) ) ;
#73 = DATE_AND_TIME ( #34, #173 ) ;
#74 = APPROVAL_STATUS ( 'not_yet_approved' ) ;
#75 = ORIENTED_EDGE ( 'NONE', *, *, #167, .F. ) ;
#76 =( LENGTH_UNIT ( ) NAMED_UNIT ( * ) SI_UNIT ( .MILLI., .METRE. ) );
#77 = DIRECTION ( 'NONE',  ( 1.000000000000000000, 0.0000000000000000000, -0.0000000000000000000 ) ) ;
#78 = FACE_OUTER_BOUND ( 'NONE', #36, .T. ) ;
#79 = CYLINDRICAL_SURFACE ( 'NONE', #65, 10.00000000000000000 ) ;
#80 = PERSON_AND_ORGANIZATION ( #69, #9 ) ;
#81 = PLANE ( 'NONE',  #103 ) ;
#82 = APPROVAL ( #124, 'UNSPECIFIED' ) ;
#83 = DIRECTION ( 'NONE',  ( 1.000000000000000000, 0.0000000000000000000, 0.0000000000000000000 ) ) ;
#84 = CALENDAR_DATE ( 2017, 6, 3 ) ;
#85 = CARTESIAN_POINT ( 'NONE',  ( 0.0000000000000000000, 0.0000000000000000000, -1.000000000000000000 ) ) ;
#86 = EDGE_CURVE ( 'NONE', #110, #1, #122, .T. ) ;
#87 = CIRCLE ( 'NONE', #28, 10.00000000000000000 ) ;
#88 = PRODUCT_DEFINITION ( 'UNKNOWN', '', #147, #130 ) ;
#89 = ADVANCED_BREP_SHAPE_REPRESENTATION ( 'Web Model 68806_68814', ( #54, #39 ), #135 ) ;
#90 = APPROVAL_DATE_TIME ( #47, #82 ) ;
#91 = APPROVAL_PERSON_ORGANIZATION ( #133, #82, #164 ) ;
#92 = APPROVAL_DATE_TIME ( #73, #8 ) ;
#93 = PERSON_AND_ORGANIZATION_ROLE ( 'creator' ) ;
#94 = CARTESIAN_POINT ( 'NONE',  ( -10.00000000000000000, 0.0000000000000000000, -1.000000000000000000 ) ) ;
#95 = DIRECTION ( 'NONE',  ( 0.0000000000000000000, 0.0000000000000000000, 1.000000000000000000 ) ) ;
#96 = APPLICATION_CONTEXT ( 'configuration controlled 3d designs of mechanical parts and assemblies' ) ;
#97 = FACE_OUTER_BOUND ( 'NONE', #18, .T. ) ;
#98 = CARTESIAN_POINT ( 'NONE',  ( 10.00000000000000000, 1.224646799147353300E-015, 1.000000000000000000 ) ) ;
#99 = DATE_TIME_ROLE ( 'classification_date' ) ;
#100 = AXIS2_PLACEMENT_3D ( 'NONE', #63, #2, #77 ) ;
#101 = PERSON_AND_ORGANIZATION ( #69, #9 ) ;
#102 = AXIS2_PLACEMENT_3D ( 'NONE', #154, #50, #38 ) ;
#103 = AXIS2_PLACEMENT_3D ( 'NONE', #168, #129, #27 ) ;
#104 = DATE_AND_TIME ( #31, #58 ) ;
#105 = CIRCLE ( 'NONE', #113, 10.00000000000000000 ) ;
#106 = APPROVAL_DATE_TIME ( #21, #24 ) ;
#107 = DIRECTION ( 'NONE',  ( -0.0000000000000000000, -0.0000000000000000000, -1.000000000000000000 ) ) ;
#108 = EDGE_CURVE ( 'NONE', #1, #110, #121, .T. ) ;
#109 = DIRECTION ( 'NONE',  ( -1.000000000000000000, 0.0000000000000000000, 0.0000000000000000000 ) ) ;
#110 = VERTEX_POINT ( 'NONE', #17 ) ;
#111 = APPROVAL_ROLE ( '' ) ;
#112 = EDGE_LOOP ( 'NONE', ( #13, #117 ) ) ;
#113 = AXIS2_PLACEMENT_3D ( 'NONE', #85, #6, #83 ) ;
#114 = MECHANICAL_CONTEXT ( 'NONE', #35, 'mechanical' ) ;
#115 = CC_DESIGN_PERSON_AND_ORGANIZATION_ASSIGNMENT ( #4, #141, ( #56 ) ) ;
#116 = PERSON_AND_ORGANIZATION_ROLE ( 'classification_officer' ) ;
#117 = ORIENTED_EDGE ( 'NONE', *, *, #108, .T. ) ;
#118 = PERSON_AND_ORGANIZATION ( #69, #9 ) ;
#119 = EDGE_CURVE ( 'NONE', #148, #156, #87, .T. ) ;
#120 = VECTOR ( 'NONE', #169, 1000.000000000000000 ) ;
#121 = CIRCLE ( 'NONE', #22, 10.00000000000000000 ) ;
#122 = CIRCLE ( 'NONE', #102, 10.00000000000000000 ) ;
#123 = UNCERTAINTY_MEASURE_WITH_UNIT (LENGTH_MEASURE( 1.000000000000000100E-005 ), #76, 'distance_accuracy_value', 'NONE');
#124 = APPROVAL_STATUS ( 'not_yet_approved' ) ;
#125 = DIRECTION ( 'NONE',  ( -0.0000000000000000000, -0.0000000000000000000, -1.000000000000000000 ) ) ;
#126 = LINE ( 'NONE', #98, #120 ) ;
#127 = COORDINATED_UNIVERSAL_TIME_OFFSET ( 5, 0, .BEHIND. ) ;
#128 = CYLINDRICAL_SURFACE ( 'NONE', #158, 10.00000000000000000 ) ;
#129 = DIRECTION ( 'NONE',  ( 0.0000000000000000000, 0.0000000000000000000, 1.000000000000000000 ) ) ;
#130 = DESIGN_CONTEXT ( 'detailed design', #96, 'design' ) ;
#131 = CARTESIAN_POINT ( 'NONE',  ( 0.0000000000000000000, 0.0000000000000000000, 1.000000000000000000 ) ) ;
#132 = LOCAL_TIME ( 12, 47, 10.00000000000000000, #161 ) ;
#133 = PERSON_AND_ORGANIZATION ( #69, #9 ) ;
#134 = FACE_OUTER_BOUND ( 'NONE', #112, .T. ) ;
#135 =( GEOMETRIC_REPRESENTATION_CONTEXT ( 3 ) GLOBAL_UNCERTAINTY_ASSIGNED_CONTEXT ( ( #123 ) ) GLOBAL_UNIT_ASSIGNED_CONTEXT ( ( #76, #59, #150 ) ) REPRESENTATION_CONTEXT ( 'NONE', 'WORKASPACE' ) );
#136 = LINE ( 'NONE', #61, #142 ) ;
#137 = APPLICATION_PROTOCOL_DEFINITION ( 'international standard', 'config_control_design', 1994, #35 ) ;
#138 = APPROVAL_STATUS ( 'not_yet_approved' ) ;
#139 = ORIENTED_EDGE ( 'NONE', *, *, #108, .F. ) ;
#140 = DIRECTION ( 'NONE',  ( 0.0000000000000000000, 0.0000000000000000000, 1.000000000000000000 ) ) ;
#141 = PERSON_AND_ORGANIZATION_ROLE ( 'design_owner' ) ;
#142 = VECTOR ( 'NONE', #125, 1000.000000000000000 ) ;
#143 = ORIENTED_EDGE ( 'NONE', *, *, #70, .T. ) ;
#144 = ADVANCED_FACE ( 'NONE', ( #134 ), #81, .T. ) ;
#145 = COORDINATED_UNIVERSAL_TIME_OFFSET ( 5, 0, .BEHIND. ) ;
#146 = ADVANCED_FACE ( 'NONE', ( #97 ), #15, .F. ) ;
#147 = PRODUCT_DEFINITION_FORMATION_WITH_SPECIFIED_SOURCE ( 'ANY', '', #56, .NOT_KNOWN. ) ;
#148 = VERTEX_POINT ( 'NONE', #94 ) ;
#149 = LOCAL_TIME ( 12, 47, 10.00000000000000000, #41 ) ;
#150 =( NAMED_UNIT ( * ) SI_UNIT ( $, .STERADIAN. ) SOLID_ANGLE_UNIT ( ) );
#151 = ORIENTED_EDGE ( 'NONE', *, *, #167, .T. ) ;
#152 = CARTESIAN_POINT ( 'NONE',  ( 10.00000000000000000, 1.224646799147353300E-015, -1.000000000000000000 ) ) ;
#153 = DIRECTION ( 'NONE',  ( 1.000000000000000000, 0.0000000000000000000, 0.0000000000000000000 ) ) ;
#154 = CARTESIAN_POINT ( 'NONE',  ( 0.0000000000000000000, 0.0000000000000000000, 1.000000000000000000 ) ) ;
#155 = DIRECTION ( 'NONE',  ( -1.000000000000000000, 0.0000000000000000000, 0.0000000000000000000 ) ) ;
#156 = VERTEX_POINT ( 'NONE', #152 ) ;
#157 = APPROVAL_PERSON_ORGANIZATION ( #118, #24, #111 ) ;
#158 = AXIS2_PLACEMENT_3D ( 'NONE', #53, #107, #155 ) ;
#159 = PRODUCT_DEFINITION_SHAPE ( 'NONE', 'NONE',  #88 ) ;
#160 = CC_DESIGN_DATE_AND_TIME_ASSIGNMENT ( #7, #25, ( #88 ) ) ;
#161 = COORDINATED_UNIVERSAL_TIME_OFFSET ( 5, 0, .BEHIND. ) ;
#162 = APPROVAL_PERSON_ORGANIZATION ( #80, #8, #12 ) ;
#163 = DIRECTION ( 'NONE',  ( -0.0000000000000000000, -0.0000000000000000000, -1.000000000000000000 ) ) ;
#164 = APPROVAL_ROLE ( '' ) ;
#165 = ORIENTED_EDGE ( 'NONE', *, *, #119, .T. ) ;
#166 = SHAPE_DEFINITION_REPRESENTATION ( #159, #89 ) ;
#167 = EDGE_CURVE ( 'NONE', #110, #148, #136, .T. ) ;
#168 = CARTESIAN_POINT ( 'NONE',  ( 0.0000000000000000000, 0.0000000000000000000, 1.000000000000000000 ) ) ;
#169 = DIRECTION ( 'NONE',  ( -0.0000000000000000000, -0.0000000000000000000, -1.000000000000000000 ) ) ;
#170 = CC_DESIGN_PERSON_AND_ORGANIZATION_ASSIGNMENT ( #64, #93, ( #88 ) ) ;
#171 = PERSON_AND_ORGANIZATION ( #69, #9 ) ;
#172 = COORDINATED_UNIVERSAL_TIME_OFFSET ( 5, 0, .BEHIND. ) ;
#173 = LOCAL_TIME ( 12, 47, 10.00000000000000000, #145 ) ;
#174 = CC_DESIGN_APPROVAL ( #8, ( #88 ) ) ;
#175 = ORIENTED_EDGE ( 'NONE', *, *, #70, .F. ) ;
ENDSEC;
END-ISO-10303-21;
