ISO-10303-21;
HEADER;
FILE_DESCRIPTION (( 'STEP AP203' ),
    '1' );
FILE_NAME ('Web Model 19841_19894.step',
    '2022-04-06T15:20:59',
    ( 'WC' ),
    ( 'Windows Central' ),
    'SwSTEP 2.0',
    'SolidWorks 2021',
    '' );
FILE_SCHEMA (( 'CONFIG_CONTROL_DESIGN' ));
ENDSEC;

DATA;
#1 = DIRECTION ( 'NONE',  ( 0.000000000000000000, 0.000000000000000000, 1.000000000000000000 ) ) ;
#2 = APPROVAL_ROLE ( '' ) ;
#3 = CYLINDRICAL_SURFACE ( 'NONE', #15, 25.00000000000000000 ) ;
#4 = FACE_OUTER_BOUND ( 'NONE', #30, .T. ) ;
#5 = DIRECTION ( 'NONE',  ( 1.000000000000000000, 0.000000000000000000, -0.000000000000000000 ) ) ;
#6 = PLANE ( 'NONE',  #23 ) ;
#7 = CC_DESIGN_PERSON_AND_ORGANIZATION_ASSIGNMENT ( #65, #159, ( #87 ) ) ;
#8 = MANIFOLD_SOLID_BREP ( 'Boss-Extrude1', #90 ) ;
#9 = CARTESIAN_POINT ( 'NONE',  ( 0.000000000000000000, 0.000000000000000000, 0.000000000000000000 ) ) ;
#10 = PERSON_AND_ORGANIZATION_ROLE ( 'creator' ) ;
#11 = EDGE_CURVE ( 'NONE', #153, #79, #75, .T. ) ;
#12 = CALENDAR_DATE ( 2022, 6, 4 ) ;
#13 = APPLICATION_PROTOCOL_DEFINITION ( 'international standard', 'config_control_design', 1994, #143 ) ;
#14 = VECTOR ( 'NONE', #150, 1000.000000000000000 ) ;
#15 = AXIS2_PLACEMENT_3D ( 'NONE', #141, #77, #126 ) ;
#16 = CC_DESIGN_PERSON_AND_ORGANIZATION_ASSIGNMENT ( #35, #103, ( #69 ) ) ;
#17 = CARTESIAN_POINT ( 'NONE',  ( 0.000000000000000000, 0.000000000000000000, 0.000000000000000000 ) ) ;
#18 = ORIENTED_EDGE ( 'NONE', *, *, #130, .T. ) ;
#19 = ADVANCED_BREP_SHAPE_REPRESENTATION ( 'Web Model 19841_19894', ( #8, #122 ), #175 ) ;
#20 = DIRECTION ( 'NONE',  ( 1.000000000000000000, 0.000000000000000000, 0.000000000000000000 ) ) ;
#21 = ORIENTED_EDGE ( 'NONE', *, *, #80, .T. ) ;
#22 = CARTESIAN_POINT ( 'NONE',  ( 0.000000000000000000, 0.000000000000000000, 0.000000000000000000 ) ) ;
#23 = AXIS2_PLACEMENT_3D ( 'NONE', #22, #85, #55 ) ;
#24 = CALENDAR_DATE ( 2022, 6, 4 ) ;
#25 = APPROVAL_DATE_TIME ( #26, #140 ) ;
#26 = DATE_AND_TIME ( #89, #135 ) ;
#27 = CALENDAR_DATE ( 2022, 6, 4 ) ;
#28 = EDGE_CURVE ( 'NONE', #153, #34, #128, .T. ) ;
#29 = CYLINDRICAL_SURFACE ( 'NONE', #162, 25.00000000000000000 ) ;
#30 = EDGE_LOOP ( 'NONE', ( #117, #21, #60, #97 ) ) ;
#31 = CARTESIAN_POINT ( 'NONE',  ( 25.00000000000000000, 3.061616997868383043E-15, 0.000000000000000000 ) ) ;
#32 = ORGANIZATION ( 'UNSPECIFIED', 'UNSPECIFIED', '' ) ;
#33 = ORIENTED_EDGE ( 'NONE', *, *, #49, .F. ) ;
#34 = VERTEX_POINT ( 'NONE', #96 ) ;
#35 = PERSON_AND_ORGANIZATION ( #116, #32 ) ;
#36 = PERSON_AND_ORGANIZATION_ROLE ( 'creator' ) ;
#37 = SECURITY_CLASSIFICATION_LEVEL ( 'unclassified' ) ;
#38 = APPROVAL_DATE_TIME ( #64, #66 ) ;
#39 = PERSON_AND_ORGANIZATION ( #116, #32 ) ;
#40 = AXIS2_PLACEMENT_3D ( 'NONE', #98, #112, #5 ) ;
#41 = PERSON_AND_ORGANIZATION ( #116, #32 ) ;
#42 = ORIENTED_EDGE ( 'NONE', *, *, #11, .T. ) ;
#43 = AXIS2_PLACEMENT_3D ( 'NONE', #58, #113, #20 ) ;
#44 = FACE_OUTER_BOUND ( 'NONE', #168, .T. ) ;
#45 = FACE_OUTER_BOUND ( 'NONE', #59, .T. ) ;
#46 = CC_DESIGN_DATE_AND_TIME_ASSIGNMENT ( #54, #81, ( #102 ) ) ;
#47 = LINE ( 'NONE', #125, #61 ) ;
#48 = PLANE ( 'NONE',  #40 ) ;
#49 = EDGE_CURVE ( 'NONE', #34, #67, #118, .T. ) ;
#50 = APPROVAL_STATUS ( 'not_yet_approved' ) ;
#51 = ORIENTED_EDGE ( 'NONE', *, *, #174, .F. ) ;
#52 = DIRECTION ( 'NONE',  ( 1.000000000000000000, 0.000000000000000000, 0.000000000000000000 ) ) ;
#53 = CC_DESIGN_APPROVAL ( #140, ( #87 ) ) ;
#54 = DATE_AND_TIME ( #110, #152 ) ;
#55 = DIRECTION ( 'NONE',  ( 1.000000000000000000, 0.000000000000000000, -0.000000000000000000 ) ) ;
#56 = APPROVAL_DATE_TIME ( #136, #134 ) ;
#57 = LOCAL_TIME ( 11, 20, 59.00000000000000000, #148 ) ;
#58 = CARTESIAN_POINT ( 'NONE',  ( 0.000000000000000000, 0.000000000000000000, 5.000000000000000000 ) ) ;
#59 = EDGE_LOOP ( 'NONE', ( #165, #129, #92, #74 ) ) ;
#60 = ORIENTED_EDGE ( 'NONE', *, *, #174, .T. ) ;
#61 = VECTOR ( 'NONE', #86, 1000.000000000000000 ) ;
#62 = APPROVAL_ROLE ( '' ) ;
#63 = AXIS2_PLACEMENT_3D ( 'NONE', #138, #83, #167 ) ;
#64 = DATE_AND_TIME ( #12, #132 ) ;
#65 = PERSON_AND_ORGANIZATION ( #116, #32 ) ;
#66 = APPROVAL ( #93, 'UNSPECIFIED' ) ;
#67 = VERTEX_POINT ( 'NONE', #31 ) ;
#68 = PRODUCT_DEFINITION_SHAPE ( 'NONE', 'NONE',  #161 ) ;
#69 = PRODUCT ( 'Web Model 19841_19894', 'Web Model 19841_19894', '', ( #107 ) ) ;
#70 = CC_DESIGN_PERSON_AND_ORGANIZATION_ASSIGNMENT ( #101, #36, ( #161 ) ) ;
#71 = CIRCLE ( 'NONE', #43, 25.00000000000000000 ) ;
#72 = SHAPE_DEFINITION_REPRESENTATION ( #68, #19 ) ;
#73 = DIRECTION ( 'NONE',  ( 0.000000000000000000, 0.000000000000000000, 1.000000000000000000 ) ) ;
#74 = ORIENTED_EDGE ( 'NONE', *, *, #49, .T. ) ;
#75 = CIRCLE ( 'NONE', #63, 25.00000000000000000 ) ;
#76 = CARTESIAN_POINT ( 'NONE',  ( -25.00000000000000000, 0.000000000000000000, 5.000000000000000000 ) ) ;
#77 = DIRECTION ( 'NONE',  ( -0.000000000000000000, -0.000000000000000000, -1.000000000000000000 ) ) ;
#78 = PERSON_AND_ORGANIZATION ( #116, #32 ) ;
#79 = VERTEX_POINT ( 'NONE', #139 ) ;
#80 = EDGE_CURVE ( 'NONE', #79, #67, #47, .T. ) ;
#81 = DATE_TIME_ROLE ( 'classification_date' ) ;
#82 = CARTESIAN_POINT ( 'NONE',  ( 0.000000000000000000, 0.000000000000000000, 5.000000000000000000 ) ) ;
#83 = DIRECTION ( 'NONE',  ( 0.000000000000000000, 0.000000000000000000, 1.000000000000000000 ) ) ;
#84 = DIRECTION ( 'NONE',  ( -1.000000000000000000, 0.000000000000000000, 0.000000000000000000 ) ) ;
#85 = DIRECTION ( 'NONE',  ( 0.000000000000000000, 0.000000000000000000, 1.000000000000000000 ) ) ;
#86 = DIRECTION ( 'NONE',  ( -0.000000000000000000, -0.000000000000000000, -1.000000000000000000 ) ) ;
#87 = PRODUCT_DEFINITION_FORMATION_WITH_SPECIFIED_SOURCE ( 'ANY', '', #69, .NOT_KNOWN. ) ;
#88 = DATE_TIME_ROLE ( 'creation_date' ) ;
#89 = CALENDAR_DATE ( 2022, 6, 4 ) ;
#90 = CLOSED_SHELL ( 'NONE', ( #111, #105, #124, #91 ) ) ;
#91 = ADVANCED_FACE ( 'NONE', ( #142 ), #6, .F. ) ;
#92 = ORIENTED_EDGE ( 'NONE', *, *, #28, .T. ) ;
#93 = APPROVAL_STATUS ( 'not_yet_approved' ) ;
#94 = APPROVAL_PERSON_ORGANIZATION ( #39, #66, #62 ) ;
#95 = COORDINATED_UNIVERSAL_TIME_OFFSET ( 5, 0, .BEHIND. ) ;
#96 = CARTESIAN_POINT ( 'NONE',  ( -25.00000000000000000, 0.000000000000000000, 0.000000000000000000 ) ) ;
#97 = ORIENTED_EDGE ( 'NONE', *, *, #28, .F. ) ;
#98 = CARTESIAN_POINT ( 'NONE',  ( 0.000000000000000000, 0.000000000000000000, 5.000000000000000000 ) ) ;
#99 = AXIS2_PLACEMENT_3D ( 'NONE', #114, #155, #131 ) ;
#100 = EDGE_LOOP ( 'NONE', ( #33, #51 ) ) ;
#101 = PERSON_AND_ORGANIZATION ( #116, #32 ) ;
#102 = SECURITY_CLASSIFICATION ( '', '', #37 ) ;
#103 = PERSON_AND_ORGANIZATION_ROLE ( 'design_owner' ) ;
#104 = COORDINATED_UNIVERSAL_TIME_OFFSET ( 5, 0, .BEHIND. ) ;
#105 = ADVANCED_FACE ( 'NONE', ( #45 ), #29, .T. ) ;
#106 = APPROVAL_PERSON_ORGANIZATION ( #41, #134, #2 ) ;
#107 = MECHANICAL_CONTEXT ( 'NONE', #143, 'mechanical' ) ;
#108 = CC_DESIGN_PERSON_AND_ORGANIZATION_ASSIGNMENT ( #121, #173, ( #102 ) ) ;
#109 = CC_DESIGN_APPROVAL ( #66, ( #161 ) ) ;
#110 = CALENDAR_DATE ( 2022, 6, 4 ) ;
#111 = ADVANCED_FACE ( 'NONE', ( #4 ), #3, .T. ) ;
#112 = DIRECTION ( 'NONE',  ( 0.000000000000000000, 0.000000000000000000, 1.000000000000000000 ) ) ;
#113 = DIRECTION ( 'NONE',  ( 0.000000000000000000, 0.000000000000000000, 1.000000000000000000 ) ) ;
#114 = CARTESIAN_POINT ( 'NONE',  ( 0.000000000000000000, 0.000000000000000000, 0.000000000000000000 ) ) ;
#115 = CC_DESIGN_DATE_AND_TIME_ASSIGNMENT ( #160, #88, ( #161 ) ) ;
#116 = PERSON ( 'UNSPECIFIED', 'UNSPECIFIED', 'UNSPECIFIED', ('UNSPECIFIED'), ('UNSPECIFIED'), ('UNSPECIFIED') ) ;
#117 = ORIENTED_EDGE ( 'NONE', *, *, #130, .F. ) ;
#118 = CIRCLE ( 'NONE', #147, 25.00000000000000000 ) ;
#119 =( LENGTH_UNIT ( ) NAMED_UNIT ( * ) SI_UNIT ( .MILLI., .METRE. ) );
#120 = COORDINATED_UNIVERSAL_TIME_OFFSET ( 5, 0, .BEHIND. ) ;
#121 = PERSON_AND_ORGANIZATION ( #116, #32 ) ;
#122 = AXIS2_PLACEMENT_3D ( 'NONE', #9, #1, #52 ) ;
#123 = APPROVAL_STATUS ( 'not_yet_approved' ) ;
#124 = ADVANCED_FACE ( 'NONE', ( #44 ), #48, .T. ) ;
#125 = CARTESIAN_POINT ( 'NONE',  ( 25.00000000000000000, 3.061616997868383043E-15, 5.000000000000000000 ) ) ;
#126 = DIRECTION ( 'NONE',  ( -1.000000000000000000, 0.000000000000000000, 0.000000000000000000 ) ) ;
#127 = CC_DESIGN_APPROVAL ( #134, ( #102 ) ) ;
#128 = LINE ( 'NONE', #76, #14 ) ;
#129 = ORIENTED_EDGE ( 'NONE', *, *, #11, .F. ) ;
#130 = EDGE_CURVE ( 'NONE', #79, #153, #71, .T. ) ;
#131 = DIRECTION ( 'NONE',  ( 1.000000000000000000, 0.000000000000000000, 0.000000000000000000 ) ) ;
#132 = LOCAL_TIME ( 11, 20, 59.00000000000000000, #104 ) ;
#133 = APPROVAL_ROLE ( '' ) ;
#134 = APPROVAL ( #123, 'UNSPECIFIED' ) ;
#135 = LOCAL_TIME ( 11, 20, 59.00000000000000000, #120 ) ;
#136 = DATE_AND_TIME ( #27, #57 ) ;
#137 = CIRCLE ( 'NONE', #99, 25.00000000000000000 ) ;
#138 = CARTESIAN_POINT ( 'NONE',  ( 0.000000000000000000, 0.000000000000000000, 5.000000000000000000 ) ) ;
#139 = CARTESIAN_POINT ( 'NONE',  ( 25.00000000000000000, 3.061616997868383043E-15, 5.000000000000000000 ) ) ;
#140 = APPROVAL ( #50, 'UNSPECIFIED' ) ;
#141 = CARTESIAN_POINT ( 'NONE',  ( 0.000000000000000000, 0.000000000000000000, 5.000000000000000000 ) ) ;
#142 = FACE_OUTER_BOUND ( 'NONE', #100, .T. ) ;
#143 = APPLICATION_CONTEXT ( 'configuration controlled 3d designs of mechanical parts and assemblies' ) ;
#144 = DESIGN_CONTEXT ( 'detailed design', #164, 'design' ) ;
#145 = PERSON_AND_ORGANIZATION ( #116, #32 ) ;
#146 =( NAMED_UNIT ( * ) SI_UNIT ( $, .STERADIAN. ) SOLID_ANGLE_UNIT ( ) );
#147 = AXIS2_PLACEMENT_3D ( 'NONE', #17, #73, #149 ) ;
#148 = COORDINATED_UNIVERSAL_TIME_OFFSET ( 5, 0, .BEHIND. ) ;
#149 = DIRECTION ( 'NONE',  ( 1.000000000000000000, 0.000000000000000000, 0.000000000000000000 ) ) ;
#150 = DIRECTION ( 'NONE',  ( -0.000000000000000000, -0.000000000000000000, -1.000000000000000000 ) ) ;
#151 = CARTESIAN_POINT ( 'NONE',  ( -25.00000000000000000, 0.000000000000000000, 5.000000000000000000 ) ) ;
#152 = LOCAL_TIME ( 11, 20, 59.00000000000000000, #95 ) ;
#153 = VERTEX_POINT ( 'NONE', #151 ) ;
#154 = CC_DESIGN_SECURITY_CLASSIFICATION ( #102, ( #87 ) ) ;
#155 = DIRECTION ( 'NONE',  ( 0.000000000000000000, 0.000000000000000000, 1.000000000000000000 ) ) ;
#156 = PRODUCT_RELATED_PRODUCT_CATEGORY ( 'detail', '', ( #69 ) ) ;
#157 = UNCERTAINTY_MEASURE_WITH_UNIT (LENGTH_MEASURE( 1.000000000000000082E-05 ), #119, 'distance_accuracy_value', 'NONE');
#158 = COORDINATED_UNIVERSAL_TIME_OFFSET ( 5, 0, .BEHIND. ) ;
#159 = PERSON_AND_ORGANIZATION_ROLE ( 'design_supplier' ) ;
#160 = DATE_AND_TIME ( #24, #166 ) ;
#161 = PRODUCT_DEFINITION ( 'UNKNOWN', '', #87, #144 ) ;
#162 = AXIS2_PLACEMENT_3D ( 'NONE', #82, #169, #84 ) ;
#163 = CC_DESIGN_PERSON_AND_ORGANIZATION_ASSIGNMENT ( #78, #10, ( #87 ) ) ;
#164 = APPLICATION_CONTEXT ( 'configuration controlled 3d designs of mechanical parts and assemblies' ) ;
#165 = ORIENTED_EDGE ( 'NONE', *, *, #80, .F. ) ;
#166 = LOCAL_TIME ( 11, 20, 59.00000000000000000, #158 ) ;
#167 = DIRECTION ( 'NONE',  ( 1.000000000000000000, 0.000000000000000000, 0.000000000000000000 ) ) ;
#168 = EDGE_LOOP ( 'NONE', ( #42, #18 ) ) ;
#169 = DIRECTION ( 'NONE',  ( -0.000000000000000000, -0.000000000000000000, -1.000000000000000000 ) ) ;
#170 = APPROVAL_PERSON_ORGANIZATION ( #145, #140, #133 ) ;
#171 =( NAMED_UNIT ( * ) PLANE_ANGLE_UNIT ( ) SI_UNIT ( $, .RADIAN. ) );
#172 = APPLICATION_PROTOCOL_DEFINITION ( 'international standard', 'config_control_design', 1994, #164 ) ;
#173 = PERSON_AND_ORGANIZATION_ROLE ( 'classification_officer' ) ;
#174 = EDGE_CURVE ( 'NONE', #67, #34, #137, .T. ) ;
#175 =( GEOMETRIC_REPRESENTATION_CONTEXT ( 3 ) GLOBAL_UNCERTAINTY_ASSIGNED_CONTEXT ( ( #157 ) ) GLOBAL_UNIT_ASSIGNED_CONTEXT ( ( #119, #171, #146 ) ) REPRESENTATION_CONTEXT ( 'NONE', 'WORKASPACE' ) );
ENDSEC;
END-ISO-10303-21;
