ISO-10303-21;
HEADER;
FILE_DESCRIPTION (( 'STEP AP203' ),
    '1' );
FILE_NAME ('Web Model 66760.STEP',
    '2017-01-31T19:40:14',
    ( '' ),
    ( '' ),
    'SwSTEP 2.0',
    'SolidWorks 2016',
    '' );
FILE_SCHEMA (( 'CONFIG_CONTROL_DESIGN' ));
ENDSEC;

DATA;
#1 = APPROVAL_STATUS ( 'not_yet_approved' ) ;
#2 = EDGE_CURVE ( 'NONE', #72, #191, #291, .T. ) ;
#3 = CARTESIAN_POINT ( 'NONE',  ( -12.50000000000000000, -12.50000000000000000, 0.001732850113934809900 ) ) ;
#4 = LOCAL_TIME ( 14, 40, 14.00000000000000000, #10 ) ;
#5 = CIRCLE ( 'NONE', #237, 12.50000000000000000 ) ;
#6 = DIRECTION ( 'NONE',  ( 0.0000000000000000000, 0.0000000000000000000, 1.000000000000000000 ) ) ;
#7 = APPROVAL ( #101, 'UNSPECIFIED' ) ;
#8 = PERSON_AND_ORGANIZATION ( #106, #278 ) ;
#9 = DIRECTION ( 'NONE',  ( -1.734723475976810100E-020, -3.407667765548950100E-037, 1.000000000000000000 ) ) ;
#10 = COORDINATED_UNIVERSAL_TIME_OFFSET ( 5, 0, .BEHIND. ) ;
#11 = CARTESIAN_POINT ( 'NONE',  ( 0.0000000000000000000, 0.0000000000000000000, 0.0000000000000000000 ) ) ;
#12 = CYLINDRICAL_SURFACE ( 'NONE', #282, 12.50000000000000000 ) ;
#13 = PERSON_AND_ORGANIZATION ( #106, #278 ) ;
#14 = ORIENTED_EDGE ( 'NONE', *, *, #113, .F. ) ;
#15 = EDGE_LOOP ( 'NONE', ( #298, #212 ) ) ;
#16 = PERSON_AND_ORGANIZATION ( #106, #278 ) ;
#17 = AXIS2_PLACEMENT_3D ( 'NONE', #80, #227, #156 ) ;
#18 = CARTESIAN_POINT ( 'NONE',  ( 0.0000000000000000000, 0.0000000000000000000, 0.0000000000000000000 ) ) ;
#19 = CARTESIAN_POINT ( 'NONE',  ( -10.06944472837760100, 6.165756627899430100E-016, 0.0003850779603345999800 ) ) ;
#20 = CARTESIAN_POINT ( 'NONE',  ( 5.902777868564039700, -1.084322703422220000E-015, -5.308337926150569800E-005 ) ) ;
#21 = CARTESIAN_POINT ( 'NONE',  ( 1.736111111390969700, 1.736111111390969700, 0.0000000000000000000 ) ) ;
#22 = CC_DESIGN_PERSON_AND_ORGANIZATION_ASSIGNMENT ( #143, #153, ( #290 ) ) ;
#23 = FACE_OUTER_BOUND ( 'NONE', #107, .T. ) ;
#24 = DIRECTION ( 'NONE',  ( 1.000000000000000000, 0.0000000000000000000, 0.0000000000000000000 ) ) ;
#25 = EDGE_CURVE ( 'NONE', #120, #89, #91, .T. ) ;
#26 = CARTESIAN_POINT ( 'NONE',  ( 0.0000000000000000000, 1.776356839400250100E-015, -4.000000000000000000 ) ) ;
#27 = PERSON_AND_ORGANIZATION_ROLE ( 'creator' ) ;
#28 = CARTESIAN_POINT ( 'NONE',  ( 10.06944472837760300, 10.06944472837760300, 0.0003850779603345999800 ) ) ;
#29 = DATE_TIME_ROLE ( 'classification_date' ) ;
#30 = CARTESIAN_POINT ( 'NONE',  ( 12.50000000000000000, -2.296212748401289900E-015, 0.001732850113934809900 ) ) ;
#31 = CALENDAR_DATE ( 2017, 31, 1 ) ;
#32 =( GEOMETRIC_REPRESENTATION_CONTEXT ( 3 ) GLOBAL_UNCERTAINTY_ASSIGNED_CONTEXT ( ( #85 ) ) GLOBAL_UNIT_ASSIGNED_CONTEXT ( ( #123, #50, #220 ) ) REPRESENTATION_CONTEXT ( 'NONE', 'WORKASPACE' ) );
#33 = PRODUCT ( 'Web Model 66760', 'Web Model 66760', '', ( #127 ) ) ;
#34 = CARTESIAN_POINT ( 'NONE',  ( 0.0000000000000000000, 0.0000000000000000000, 0.0000000000000000000 ) ) ;
#35 = ORIENTED_EDGE ( 'NONE', *, *, #25, .T. ) ;
#36 = CARTESIAN_POINT ( 'NONE',  ( 0.0000000000000000000, 0.0000000000000000000, 0.0000000000000000000 ) ) ;
#37 = PRODUCT_DEFINITION ( 'UNKNOWN', '', #290, #160 ) ;
#38 = ADVANCED_FACE ( 'NONE', ( #23 ), #155, .T. ) ;
#39 = CC_DESIGN_DATE_AND_TIME_ASSIGNMENT ( #150, #29, ( #158 ) ) ;
#40 = VERTEX_POINT ( 'NONE', #230 ) ;
#41 = CARTESIAN_POINT ( 'NONE',  ( 0.0000000000000000000, 0.0000000000000000000, 0.0000000000000000000 ) ) ;
#42 = CARTESIAN_POINT ( 'NONE',  ( -5.902777868564039700, -5.902777868564039700, -5.308337926150569100E-005 ) ) ;
#43 = LOCAL_TIME ( 14, 40, 14.00000000000000000, #234 ) ;
#44 = CARTESIAN_POINT ( 'NONE',  ( -12.50000000000000000, 7.654042494670959600E-016, 0.001732850113934809900 ) ) ;
#45 = AXIS2_PLACEMENT_3D ( 'NONE', #132, #105, #244 ) ;
#46 = CARTESIAN_POINT ( 'NONE',  ( -1.736111111390969700, 1.736111111390969700, 0.0000000000000000000 ) ) ;
#47 = CARTESIAN_POINT ( 'NONE',  ( 0.0000000000000000000, 12.50000000000000000, 0.001732850113934809900 ) ) ;
#48 = CARTESIAN_POINT ( 'NONE',  ( 12.49999999999999800, 1.632765987455498600E-015, -4.000000000000000000 ) ) ;
#49 = CIRCLE ( 'NONE', #251, 12.50000000000000000 ) ;
#50 =( NAMED_UNIT ( * ) PLANE_ANGLE_UNIT ( ) SI_UNIT ( $, .RADIAN. ) );
#51 = CC_DESIGN_APPROVAL ( #93, ( #37 ) ) ;
#52 = DIRECTION ( 'NONE',  ( 0.0000000000000000000, 0.0000000000000000000, -1.000000000000000000 ) ) ;
#53 = DIRECTION ( 'NONE',  ( 1.000000000000000000, 0.0000000000000000000, 0.0000000000000000000 ) ) ;
#54 = CARTESIAN_POINT ( 'NONE',  ( -2.015468112189048300E-015, 1.632765987455498600E-015, -4.000000000000000000 ) ) ;
#55 = EDGE_LOOP ( 'NONE', ( #249, #222, #62, #116 ) ) ;
#56 = CARTESIAN_POINT ( 'NONE',  ( -1.530808498934189900E-015, -12.49999999999999800, 0.001732850113934809900 ) ) ;
#57 = AXIS2_PLACEMENT_3D ( 'NONE', #54, #78, #248 ) ;
#58 = APPROVAL ( #200, 'UNSPECIFIED' ) ;
#59 = FACE_OUTER_BOUND ( 'NONE', #152, .T. ) ;
#60 = PERSON_AND_ORGANIZATION ( #106, #278 ) ;
#61 = DATE_AND_TIME ( #188, #4 ) ;
#62 = ORIENTED_EDGE ( 'NONE', *, *, #258, .T. ) ;
#63 = CARTESIAN_POINT ( 'NONE',  ( -7.228818022814780300E-016, -5.902777868564039700, -5.308337926150569800E-005 ) ) ;
#64 = CC_DESIGN_APPROVAL ( #7, ( #290 ) ) ;
#65 = CARTESIAN_POINT ( 'NONE',  ( 5.902777868564039700, 5.902777868564030900, -5.308337926150569100E-005 ) ) ;
#66 = CIRCLE ( 'NONE', #57, 12.50000000000000000 ) ;
#67 = CARTESIAN_POINT ( 'NONE',  ( 12.50000000000000000, 12.50000000000000000, 0.001732850113934809900 ) ) ;
#68 = DATE_AND_TIME ( #136, #210 ) ;
#69 = CARTESIAN_POINT ( 'NONE',  ( 5.902777868564030900, -5.902777868564039700, -5.308337926150569100E-005 ) ) ;
#70 = DIRECTION ( 'NONE',  ( -1.000000000000000000, 0.0000000000000000000, -0.0000000000000000000 ) ) ;
#71 = CARTESIAN_POINT ( 'NONE',  ( -5.902777868564039700, -5.902777868564039700, -5.308337926150569100E-005 ) ) ;
#72 = VERTEX_POINT ( 'NONE', #11 ) ;
#73 = CARTESIAN_POINT ( 'NONE',  ( -9.629649721936179300E-032, 12.50000000000000400, 0.001732850113934809900 ) ) ;
#74 = CARTESIAN_POINT ( 'NONE',  ( -5.902777868564039700, 3.614409011407390200E-016, -5.308337926150569800E-005 ) ) ;
#75 = ORIENTED_EDGE ( 'NONE', *, *, #113, .T. ) ;
#76 = CARTESIAN_POINT ( 'NONE',  ( 12.50000000000000000, 1.632765987455498600E-015, 0.001732850113934809900 ) ) ;
#77 = FACE_OUTER_BOUND ( 'NONE', #159, .T. ) ;
#78 = DIRECTION ( 'NONE',  ( -0.0000000000000000000, 0.0000000000000000000, 1.000000000000000000 ) ) ;
#79 = CALENDAR_DATE ( 2017, 31, 1 ) ;
#80 = CARTESIAN_POINT ( 'NONE',  ( -2.015468112189048300E-015, 1.632765987455498600E-015, -4.000000000000000000 ) ) ;
#81 = FACE_OUTER_BOUND ( 'NONE', #15, .T. ) ;
#82 = ORIENTED_EDGE ( 'NONE', *, *, #2, .F. ) ;
#83 = CARTESIAN_POINT ( 'NONE',  ( 3.827021247335479800E-016, 1.632765987455498600E-015, 0.001732850113934809900 ) ) ;
#84 = CARTESIAN_POINT ( 'NONE',  ( -1.530808498934189900E-015, -12.49999999999999800, 0.001732850113934809900 ) ) ;
#85 = UNCERTAINTY_MEASURE_WITH_UNIT (LENGTH_MEASURE( 1.000000000000000100E-005 ), #123, 'distance_accuracy_value', 'NONE');
#86 = ADVANCED_FACE ( 'NONE', ( #77 ), #203, .T. ) ;
#87 = CC_DESIGN_PERSON_AND_ORGANIZATION_ASSIGNMENT ( #8, #242, ( #158 ) ) ;
#88 = ADVANCED_FACE ( 'NONE', ( #81 ), #197, .T. ) ;
#89 = VERTEX_POINT ( 'NONE', #76 ) ;
#90 = CARTESIAN_POINT ( 'NONE',  ( 0.0000000000000000000, 0.0000000000000000000, 0.0000000000000000000 ) ) ;
#91 = LINE ( 'NONE', #208, #177 ) ;
#92 = CARTESIAN_POINT ( 'NONE',  ( 10.06944472837760100, -1.849726988369829900E-015, 0.0003850779603345999800 ) ) ;
#93 = APPROVAL ( #1, 'UNSPECIFIED' ) ;
#94 = CARTESIAN_POINT ( 'NONE',  ( 0.0000000000000000000, 0.0000000000000000000, 0.0000000000000000000 ) ) ;
#95 = PRODUCT_DEFINITION_SHAPE ( 'NONE', 'NONE',  #37 ) ;
#96 =( BOUNDED_SURFACE ( )  B_SPLINE_SURFACE ( 3, 2, ( 
 ( #168, #236, #281, #18, #41, #90, #193, #94, #97 ),
 ( #144, #46, #211, #189, #115, #119, #261, #21, #117 ),
 ( #112, #238, #215, #42, #63, #69, #20, #65, #147 ),
 ( #297, #167, #19, #255, #295, #233, #92, #256, #214 ),
 ( #114, #279, #44, #142, #280, #190, #300, #67, #235 ) ),
 .UNSPECIFIED., .F., .T., .T. ) 
 B_SPLINE_SURFACE_WITH_KNOTS ( ( 4, 1, 4 ),
 ( 3, 2, 2, 2, 3 ),
 ( 0.0000000000000000000, 0.4166666577313750100, 1.000000000000000000 ),
 ( 0.0000000000000000000, 90.00000000000000000, 180.0000000000000000, 270.0000000000000000, 360.0000000000000000 ),
 .UNSPECIFIED. ) 
 GEOMETRIC_REPRESENTATION_ITEM ( )  RATIONAL_B_SPLINE_SURFACE ( (
 ( 1.000000000000000000, 0.7071067811865480200, 1.000000000000000000, 0.7071067811865480200, 1.000000000000000000, 0.7071067811865480200, 1.000000000000000000, 0.7071067811865480200, 1.000000000000000000),
 ( 1.000000000000000000, 0.7071067811865480200, 1.000000000000000000, 0.7071067811865480200, 1.000000000000000000, 0.7071067811865480200, 1.000000000000000000, 0.7071067811865480200, 1.000000000000000000),
 ( 1.000000000000000000, 0.7071067811865480200, 1.000000000000000000, 0.7071067811865480200, 1.000000000000000000, 0.7071067811865480200, 1.000000000000000000, 0.7071067811865480200, 1.000000000000000000),
 ( 1.000000000000000000, 0.7071067811865480200, 1.000000000000000000, 0.7071067811865480200, 1.000000000000000000, 0.7071067811865480200, 1.000000000000000000, 0.7071067811865480200, 1.000000000000000000),
 ( 1.000000000000000000, 0.7071067811865480200, 1.000000000000000000, 0.7071067811865480200, 1.000000000000000000, 0.7071067811865480200, 1.000000000000000000, 0.7071067811865480200, 1.000000000000000000) ) ) 
 REPRESENTATION_ITEM ( '' )  SURFACE ( )  );
#97 = CARTESIAN_POINT ( 'NONE',  ( 0.0000000000000000000, 0.0000000000000000000, 0.0000000000000000000 ) ) ;
#98 = CARTESIAN_POINT ( 'NONE',  ( -1.736111111390970000, 1.063061457764560100E-016, 0.0000000000000000000 ) ) ;
#99 = COORDINATED_UNIVERSAL_TIME_OFFSET ( 5, 0, .BEHIND. ) ;
#100 = CARTESIAN_POINT ( 'NONE',  ( -10.06944472837760100, 6.165756627899430100E-016, 0.0003850779603345999800 ) ) ;
#101 = APPROVAL_STATUS ( 'not_yet_approved' ) ;
#102 = CARTESIAN_POINT ( 'NONE',  ( 0.0000000000000000000, 1.736111111390970000, 0.0000000000000000000 ) ) ;
#103 = CARTESIAN_POINT ( 'NONE',  ( -1.530808498934190100E-015, -12.50000000000000000, 0.001732850113934809900 ) ) ;
#104 = DATE_AND_TIME ( #164, #219 ) ;
#105 = DIRECTION ( 'NONE',  ( 0.0000000000000000000, 0.0000000000000000000, 1.000000000000000000 ) ) ;
#106 = PERSON ( 'UNSPECIFIED', 'UNSPECIFIED', 'UNSPECIFIED', ('UNSPECIFIED'), ('UNSPECIFIED'), ('UNSPECIFIED') ) ;
#107 = EDGE_LOOP ( 'NONE', ( #14, #266, #35, #254, #161 ) ) ;
#108 = AXIS2_PLACEMENT_3D ( 'NONE', #285, #265, #121 ) ;
#109 = CARTESIAN_POINT ( 'NONE',  ( 0.0000000000000000000, 0.0000000000000000000, 0.0000000000000000000 ) ) ;
#110 = CC_DESIGN_PERSON_AND_ORGANIZATION_ASSIGNMENT ( #245, #178, ( #37 ) ) ;
#111 = CIRCLE ( 'NONE', #145, 12.50000000000000000 ) ;
#112 = CARTESIAN_POINT ( 'NONE',  ( 0.0000000000000000000, 5.902777868564039700, -5.308337926150569800E-005 ) ) ;
#113 = EDGE_CURVE ( 'NONE', #228, #129, #253, .T. ) ;
#114 = CARTESIAN_POINT ( 'NONE',  ( 0.0000000000000000000, 12.50000000000000000, 0.001732850113934809900 ) ) ;
#115 = CARTESIAN_POINT ( 'NONE',  ( -2.126122915529110000E-016, -1.736111111390970000, 0.0000000000000000000 ) ) ;
#116 = ORIENTED_EDGE ( 'NONE', *, *, #163, .T. ) ;
#117 = CARTESIAN_POINT ( 'NONE',  ( 0.0000000000000000000, 1.736111111390970000, 0.0000000000000000000 ) ) ;
#118 = CARTESIAN_POINT ( 'NONE',  ( -12.50000000000000000, 3.307165338334441800E-015, -4.000000000000000000 ) ) ;
#119 = CARTESIAN_POINT ( 'NONE',  ( 1.736111111390969700, -1.736111111390969700, 0.0000000000000000000 ) ) ;
#120 = VERTEX_POINT ( 'NONE', #48 ) ;
#121 = DIRECTION ( 'NONE',  ( 1.000000000000000000, 0.0000000000000000000, 0.0000000000000000000 ) ) ;
#122 = CARTESIAN_POINT ( 'NONE',  ( -10.06944472837760300, -10.06944472837760300, 0.0003850779603345999800 ) ) ;
#123 =( LENGTH_UNIT ( ) NAMED_UNIT ( * ) SI_UNIT ( .MILLI., .METRE. ) );
#124 = CC_DESIGN_APPROVAL ( #58, ( #158 ) ) ;
#125 = CARTESIAN_POINT ( 'NONE',  ( 1.736111111390969700, 1.736111111390969700, 0.0000000000000000000 ) ) ;
#126 = APPROVAL_DATE_TIME ( #68, #7 ) ;
#127 = MECHANICAL_CONTEXT ( 'NONE', #262, 'mechanical' ) ;
#128 = CARTESIAN_POINT ( 'NONE',  ( -25.70400000000000100, 0.0000000000000000000, -4.000000000000000000 ) ) ;
#129 = VERTEX_POINT ( 'NONE', #226 ) ;
#130 = EDGE_CURVE ( 'NONE', #129, #191, #182, .T. ) ;
#131 = ADVANCED_BREP_SHAPE_REPRESENTATION ( 'Web Model 66760', ( #275, #108 ), #32 ) ;
#132 = CARTESIAN_POINT ( 'NONE',  ( 3.827021247335479800E-016, 1.632765987455498600E-015, 0.001732850113934809900 ) ) ;
#133 = VECTOR ( 'NONE', #283, 1000.000000000000000 ) ;
#134 = CARTESIAN_POINT ( 'NONE',  ( -2.126122915529110000E-016, -1.736111111390970000, 0.0000000000000000000 ) ) ;
#135 = CARTESIAN_POINT ( 'NONE',  ( -7.228818022814780300E-016, -5.902777868564039700, -5.308337926150569800E-005 ) ) ;
#136 = CALENDAR_DATE ( 2017, 31, 1 ) ;
#137 = ADVANCED_FACE ( 'NONE', ( #59 ), #12, .T. ) ;
#138 = CC_DESIGN_SECURITY_CLASSIFICATION ( #158, ( #290 ) ) ;
#139 = ORIENTED_EDGE ( 'NONE', *, *, #163, .F. ) ;
#140 = APPROVAL_PERSON_ORGANIZATION ( #16, #93, #304 ) ;
#141 = DIRECTION ( 'NONE',  ( 0.0000000000000000000, 0.0000000000000000000, 1.000000000000000000 ) ) ;
#142 = CARTESIAN_POINT ( 'NONE',  ( -12.50000000000000000, -12.50000000000000000, 0.001732850113934809900 ) ) ;
#143 = PERSON_AND_ORGANIZATION ( #106, #278 ) ;
#144 = CARTESIAN_POINT ( 'NONE',  ( 0.0000000000000000000, 1.736111111390970000, 0.0000000000000000000 ) ) ;
#145 = AXIS2_PLACEMENT_3D ( 'NONE', #205, #180, #53 ) ;
#146 = DATE_AND_TIME ( #79, #43 ) ;
#147 = CARTESIAN_POINT ( 'NONE',  ( 0.0000000000000000000, 5.902777868564039700, -5.308337926150569800E-005 ) ) ;
#148 = CARTESIAN_POINT ( 'NONE',  ( -1.736111111390969700, 1.736111111390969700, 0.0000000000000000000 ) ) ;
#149 = CARTESIAN_POINT ( 'NONE',  ( 0.0000000000000000000, 5.902777868564039700, -5.308337926150569800E-005 ) ) ;
#150 = DATE_AND_TIME ( #31, #277 ) ;
#151 = APPLICATION_PROTOCOL_DEFINITION ( 'international standard', 'config_control_design', 1994, #302 ) ;
#152 = EDGE_LOOP ( 'NONE', ( #232, #75, #172, #139, #247 ) ) ;
#153 = PERSON_AND_ORGANIZATION_ROLE ( 'design_supplier' ) ;
#154 = CARTESIAN_POINT ( 'NONE',  ( 10.06944472837760300, -10.06944472837760300, 0.0003850779603345999800 ) ) ;
#155 = CYLINDRICAL_SURFACE ( 'NONE', #185, 12.50000000000000000 ) ;
#156 = DIRECTION ( 'NONE',  ( 1.000000000000000000, 0.0000000000000000000, 0.0000000000000000000 ) ) ;
#157 = CARTESIAN_POINT ( 'NONE',  ( 3.827021247335479800E-016, 1.632765987455498600E-015, 0.001732850113934809900 ) ) ;
#158 = SECURITY_CLASSIFICATION ( '', '', #198 ) ;
#159 = EDGE_LOOP ( 'NONE', ( #82, #217, #186, #274 ) ) ;
#160 = DESIGN_CONTEXT ( 'detailed design', #302, 'design' ) ;
#161 = ORIENTED_EDGE ( 'NONE', *, *, #130, .F. ) ;
#162 = CARTESIAN_POINT ( 'NONE',  ( 0.0000000000000000000, 0.0000000000000000000, 0.0000000000000000000 ) ) ;
#163 = EDGE_CURVE ( 'NONE', #89, #40, #111, .T. ) ;
#164 = CALENDAR_DATE ( 2017, 31, 1 ) ;
#165 = CC_DESIGN_PERSON_AND_ORGANIZATION_ASSIGNMENT ( #223, #288, ( #33 ) ) ;
#166 = DIRECTION ( 'NONE',  ( 1.000000000000000000, 0.0000000000000000000, 0.0000000000000000000 ) ) ;
#167 = CARTESIAN_POINT ( 'NONE',  ( -10.06944472837760300, 10.06944472837760300, 0.0003850779603345999800 ) ) ;
#168 = CARTESIAN_POINT ( 'NONE',  ( 0.0000000000000000000, 0.0000000000000000000, 0.0000000000000000000 ) ) ;
#169 = SHAPE_DEFINITION_REPRESENTATION ( #95, #131 ) ;
#170 = CARTESIAN_POINT ( 'NONE',  ( 0.0000000000000000000, 12.50000000000000000, 0.001732850113934809900 ) ) ;
#171 = DATE_TIME_ROLE ( 'creation_date' ) ;
#172 = ORIENTED_EDGE ( 'NONE', *, *, #246, .F. ) ;
#173 = CARTESIAN_POINT ( 'NONE',  ( -12.50000000000000000, 7.654042494670959600E-016, 0.001732850113934809900 ) ) ;
#174 = APPROVAL_ROLE ( '' ) ;
#175 = PRODUCT_RELATED_PRODUCT_CATEGORY ( 'detail', '', ( #33 ) ) ;
#176 = CARTESIAN_POINT ( 'NONE',  ( 12.50000000000000000, -12.50000000000000000, 0.001732850113934809900 ) ) ;
#177 = VECTOR ( 'NONE', #293, 1000.000000000000000 ) ;
#178 = PERSON_AND_ORGANIZATION_ROLE ( 'creator' ) ;
#179 = CARTESIAN_POINT ( 'NONE',  ( 10.06944472837760100, -1.849726988369829900E-015, 0.0003850779603345999800 ) ) ;
#180 = DIRECTION ( 'NONE',  ( 0.0000000000000000000, 0.0000000000000000000, 1.000000000000000000 ) ) ;
#181 = CARTESIAN_POINT ( 'NONE',  ( -12.50000000000000400, 3.307165338334442200E-015, -4.000000000000000000 ) ) ;
#182 = CIRCLE ( 'NONE', #45, 12.50000000000000000 ) ;
#183 = APPROVAL_DATE_TIME ( #104, #58 ) ;
#184 = CARTESIAN_POINT ( 'NONE',  ( 0.0000000000000000000, 0.0000000000000000000, 0.0000000000000000000 ) ) ;
#185 = AXIS2_PLACEMENT_3D ( 'NONE', #229, #9, #273 ) ;
#186 = ORIENTED_EDGE ( 'NONE', *, *, #246, .T. ) ;
#187 = APPROVAL_ROLE ( '' ) ;
#188 = CALENDAR_DATE ( 2017, 31, 1 ) ;
#189 = CARTESIAN_POINT ( 'NONE',  ( -1.736111111390969700, -1.736111111390969700, 0.0000000000000000000 ) ) ;
#190 = CARTESIAN_POINT ( 'NONE',  ( 12.50000000000000000, -12.50000000000000000, 0.001732850113934809900 ) ) ;
#191 = VERTEX_POINT ( 'NONE', #56 ) ;
#192 = AXIS2_PLACEMENT_3D ( 'NONE', #128, #52, #70 ) ;
#193 = CARTESIAN_POINT ( 'NONE',  ( 0.0000000000000000000, 0.0000000000000000000, 0.0000000000000000000 ) ) ;
#194 = CARTESIAN_POINT ( 'NONE',  ( -2.126122915529110000E-016, -1.736111111390970000, 0.0000000000000000000 ) ) ;
#195 = APPLICATION_PROTOCOL_DEFINITION ( 'international standard', 'config_control_design', 1994, #262 ) ;
#196 = CARTESIAN_POINT ( 'NONE',  ( 0.0000000000000000000, 5.902777868564039700, -5.308337926150569800E-005 ) ) ;
#197 = PLANE ( 'NONE',  #192 ) ;
#198 = SECURITY_CLASSIFICATION_LEVEL ( 'unclassified' ) ;
#199 = CARTESIAN_POINT ( 'NONE',  ( 0.0000000000000000000, 10.06944472837760100, 0.0003850779603345999800 ) ) ;
#200 = APPROVAL_STATUS ( 'not_yet_approved' ) ;
#201 = CARTESIAN_POINT ( 'NONE',  ( 0.0000000000000000000, 1.736111111390970000, 0.0000000000000000000 ) ) ;
#202 = CC_DESIGN_PERSON_AND_ORGANIZATION_ASSIGNMENT ( #60, #27, ( #290 ) ) ;
#203 =( BOUNDED_SURFACE ( )  B_SPLINE_SURFACE ( 3, 2, ( 
 ( #207, #250, #252, #184, #109, #162, #292, #36, #284 ),
 ( #102, #148, #98, #225, #194, #241, #240, #125, #201 ),
 ( #149, #216, #74, #71, #221, #287, #303, #305, #196 ),
 ( #199, #243, #100, #122, #286, #154, #179, #28, #239 ),
 ( #47, #289, #173, #3, #103, #176, #30, #267, #170 ) ),
 .UNSPECIFIED., .F., .T., .F. ) 
 B_SPLINE_SURFACE_WITH_KNOTS ( ( 4, 1, 4 ),
 ( 3, 2, 2, 2, 3 ),
 ( 0.0000000000000000000, 0.4166666577313750100, 1.000000000000000000 ),
 ( 0.0000000000000000000, 90.00000000000000000, 180.0000000000000000, 270.0000000000000000, 360.0000000000000000 ),
 .UNSPECIFIED. ) 
 GEOMETRIC_REPRESENTATION_ITEM ( )  RATIONAL_B_SPLINE_SURFACE ( (
 ( 1.000000000000000000, 0.7071067811865480200, 1.000000000000000000, 0.7071067811865480200, 1.000000000000000000, 0.7071067811865480200, 1.000000000000000000, 0.7071067811865480200, 1.000000000000000000),
 ( 1.000000000000000000, 0.7071067811865480200, 1.000000000000000000, 0.7071067811865480200, 1.000000000000000000, 0.7071067811865480200, 1.000000000000000000, 0.7071067811865480200, 1.000000000000000000),
 ( 1.000000000000000000, 0.7071067811865480200, 1.000000000000000000, 0.7071067811865480200, 1.000000000000000000, 0.7071067811865480200, 1.000000000000000000, 0.7071067811865480200, 1.000000000000000000),
 ( 1.000000000000000000, 0.7071067811865480200, 1.000000000000000000, 0.7071067811865480200, 1.000000000000000000, 0.7071067811865480200, 1.000000000000000000, 0.7071067811865480200, 1.000000000000000000),
 ( 1.000000000000000000, 0.7071067811865480200, 1.000000000000000000, 0.7071067811865480200, 1.000000000000000000, 0.7071067811865480200, 1.000000000000000000, 0.7071067811865480200, 1.000000000000000000) ) ) 
 REPRESENTATION_ITEM ( '' )  SURFACE ( )  );
#204 = APPROVAL_PERSON_ORGANIZATION ( #263, #58, #187 ) ;
#205 = CARTESIAN_POINT ( 'NONE',  ( 3.827021247335479800E-016, 1.632765987455498600E-015, 0.001732850113934809900 ) ) ;
#206 = COORDINATED_UNIVERSAL_TIME_OFFSET ( 5, 0, .BEHIND. ) ;
#207 = CARTESIAN_POINT ( 'NONE',  ( 0.0000000000000000000, 0.0000000000000000000, 0.0000000000000000000 ) ) ;
#208 = CARTESIAN_POINT ( 'NONE',  ( 12.50000000000000000, 1.776356839400250100E-015, -4.000000000000000000 ) ) ;
#209 = CC_DESIGN_DATE_AND_TIME_ASSIGNMENT ( #146, #171, ( #37 ) ) ;
#210 = LOCAL_TIME ( 14, 40, 14.00000000000000000, #206 ) ;
#211 = CARTESIAN_POINT ( 'NONE',  ( -1.736111111390970000, 1.063061457764560100E-016, 0.0000000000000000000 ) ) ;
#212 = ORIENTED_EDGE ( 'NONE', *, *, #213, .F. ) ;
#213 = EDGE_CURVE ( 'NONE', #228, #120, #268, .T. ) ;
#214 = CARTESIAN_POINT ( 'NONE',  ( 0.0000000000000000000, 10.06944472837760100, 0.0003850779603345999800 ) ) ;
#215 = CARTESIAN_POINT ( 'NONE',  ( -5.902777868564039700, 3.614409011407390200E-016, -5.308337926150569800E-005 ) ) ;
#216 = CARTESIAN_POINT ( 'NONE',  ( -5.902777868564039700, 5.902777868564039700, -5.308337926150569100E-005 ) ) ;
#217 = ORIENTED_EDGE ( 'NONE', *, *, #294, .T. ) ;
#218 = CARTESIAN_POINT ( 'NONE',  ( 0.0000000000000000000, 10.06944472837760100, 0.0003850779603345999800 ) ) ;
#219 = LOCAL_TIME ( 14, 40, 14.00000000000000000, #99 ) ;
#220 =( NAMED_UNIT ( * ) SI_UNIT ( $, .STERADIAN. ) SOLID_ANGLE_UNIT ( ) );
#221 = CARTESIAN_POINT ( 'NONE',  ( -7.228818022814780300E-016, -5.902777868564039700, -5.308337926150569800E-005 ) ) ;
#222 = ORIENTED_EDGE ( 'NONE', *, *, #2, .T. ) ;
#223 = PERSON_AND_ORGANIZATION ( #106, #278 ) ;
#224 = CARTESIAN_POINT ( 'NONE',  ( 0.0000000000000000000, 5.902777868564039700, -5.308337926150569800E-005 ) ) ;
#225 = CARTESIAN_POINT ( 'NONE',  ( -1.736111111390969700, -1.736111111390969700, 0.0000000000000000000 ) ) ;
#226 = CARTESIAN_POINT ( 'NONE',  ( -12.50000000000000000, 3.307165338334441800E-015, 0.001732850113934809900 ) ) ;
#227 = DIRECTION ( 'NONE',  ( -0.0000000000000000000, 0.0000000000000000000, 1.000000000000000000 ) ) ;
#228 = VERTEX_POINT ( 'NONE', #181 ) ;
#229 = CARTESIAN_POINT ( 'NONE',  ( 0.0000000000000000000, 1.776356839400250100E-015, -4.000000000000000000 ) ) ;
#230 = CARTESIAN_POINT ( 'NONE',  ( -9.629649721936179300E-032, 12.50000000000000400, 0.001732850113934809900 ) ) ;
#231 = EDGE_CURVE ( 'NONE', #120, #228, #66, .T. ) ;
#232 = ORIENTED_EDGE ( 'NONE', *, *, #231, .T. ) ;
#233 = CARTESIAN_POINT ( 'NONE',  ( 10.06944472837760300, -10.06944472837760300, 0.0003850779603345999800 ) ) ;
#234 = COORDINATED_UNIVERSAL_TIME_OFFSET ( 5, 0, .BEHIND. ) ;
#235 = CARTESIAN_POINT ( 'NONE',  ( 0.0000000000000000000, 12.50000000000000000, 0.001732850113934809900 ) ) ;
#236 = CARTESIAN_POINT ( 'NONE',  ( 0.0000000000000000000, 0.0000000000000000000, 0.0000000000000000000 ) ) ;
#237 = AXIS2_PLACEMENT_3D ( 'NONE', #157, #6, #269 ) ;
#238 = CARTESIAN_POINT ( 'NONE',  ( -5.902777868564039700, 5.902777868564039700, -5.308337926150569100E-005 ) ) ;
#239 = CARTESIAN_POINT ( 'NONE',  ( 0.0000000000000000000, 10.06944472837760100, 0.0003850779603345999800 ) ) ;
#240 = CARTESIAN_POINT ( 'NONE',  ( 1.736111111390970000, -3.189184373293670200E-016, 0.0000000000000000000 ) ) ;
#241 = CARTESIAN_POINT ( 'NONE',  ( 1.736111111390969700, -1.736111111390969700, 0.0000000000000000000 ) ) ;
#242 = PERSON_AND_ORGANIZATION_ROLE ( 'classification_officer' ) ;
#243 = CARTESIAN_POINT ( 'NONE',  ( -10.06944472837760300, 10.06944472837760300, 0.0003850779603345999800 ) ) ;
#244 = DIRECTION ( 'NONE',  ( 1.000000000000000000, 0.0000000000000000000, 0.0000000000000000000 ) ) ;
#245 = PERSON_AND_ORGANIZATION ( #106, #278 ) ;
#246 = EDGE_CURVE ( 'NONE', #40, #129, #5, .T. ) ;
#247 = ORIENTED_EDGE ( 'NONE', *, *, #25, .F. ) ;
#248 = DIRECTION ( 'NONE',  ( 1.000000000000000000, 0.0000000000000000000, 0.0000000000000000000 ) ) ;
#249 = ORIENTED_EDGE ( 'NONE', *, *, #294, .F. ) ;
#250 = CARTESIAN_POINT ( 'NONE',  ( 0.0000000000000000000, 0.0000000000000000000, 0.0000000000000000000 ) ) ;
#251 = AXIS2_PLACEMENT_3D ( 'NONE', #83, #141, #166 ) ;
#252 = CARTESIAN_POINT ( 'NONE',  ( 0.0000000000000000000, 0.0000000000000000000, 0.0000000000000000000 ) ) ;
#253 = LINE ( 'NONE', #118, #133 ) ;
#254 = ORIENTED_EDGE ( 'NONE', *, *, #258, .F. ) ;
#255 = CARTESIAN_POINT ( 'NONE',  ( -10.06944472837760300, -10.06944472837760300, 0.0003850779603345999800 ) ) ;
#256 = CARTESIAN_POINT ( 'NONE',  ( 10.06944472837760300, 10.06944472837760300, 0.0003850779603345999800 ) ) ;
#257 = FACE_OUTER_BOUND ( 'NONE', #55, .T. ) ;
#258 = EDGE_CURVE ( 'NONE', #191, #89, #49, .T. ) ;
#259 = COORDINATED_UNIVERSAL_TIME_OFFSET ( 5, 0, .BEHIND. ) ;
#260 = APPROVAL_PERSON_ORGANIZATION ( #13, #7, #174 ) ;
#261 = CARTESIAN_POINT ( 'NONE',  ( 1.736111111390970000, -3.189184373293670200E-016, 0.0000000000000000000 ) ) ;
#262 = APPLICATION_CONTEXT ( 'configuration controlled 3d designs of mechanical parts and assemblies' ) ;
#263 = PERSON_AND_ORGANIZATION ( #106, #278 ) ;
#264 = CARTESIAN_POINT ( 'NONE',  ( 0.0000000000000000000, 1.736111111390970000, 0.0000000000000000000 ) ) ;
#265 = DIRECTION ( 'NONE',  ( 0.0000000000000000000, 0.0000000000000000000, 1.000000000000000000 ) ) ;
#266 = ORIENTED_EDGE ( 'NONE', *, *, #213, .T. ) ;
#267 = CARTESIAN_POINT ( 'NONE',  ( 12.50000000000000000, 12.50000000000000000, 0.001732850113934809900 ) ) ;
#268 = CIRCLE ( 'NONE', #17, 12.50000000000000000 ) ;
#269 = DIRECTION ( 'NONE',  ( 1.000000000000000000, 0.0000000000000000000, 0.0000000000000000000 ) ) ;
#270 = CARTESIAN_POINT ( 'NONE',  ( -1.233151325579890000E-015, -10.06944472837760100, 0.0003850779603345999800 ) ) ;
#271 = B_SPLINE_CURVE_WITH_KNOTS ( 'NONE', 3,
 ( #299, #264, #224, #218, #73 ),
 .UNSPECIFIED., .F., .F.,
 ( 4, 1, 4 ),
 ( 0.0000000000000000000, 0.4166666577313750100, 1.000000000000000000 ),
 .UNSPECIFIED. ) ;
#272 = CLOSED_SHELL ( 'NONE', ( #276, #137, #86, #88, #38 ) ) ;
#273 = DIRECTION ( 'NONE',  ( 1.000000000000000000, 0.0000000000000000000, 0.0000000000000000000 ) ) ;
#274 = ORIENTED_EDGE ( 'NONE', *, *, #130, .T. ) ;
#275 = MANIFOLD_SOLID_BREP ( 'Imported1', #272 ) ;
#276 = ADVANCED_FACE ( 'NONE', ( #257 ), #96, .T. ) ;
#277 = LOCAL_TIME ( 14, 40, 14.00000000000000000, #259 ) ;
#278 = ORGANIZATION ( 'UNSPECIFIED', 'UNSPECIFIED', '' ) ;
#279 = CARTESIAN_POINT ( 'NONE',  ( -12.50000000000000000, 12.50000000000000000, 0.001732850113934809900 ) ) ;
#280 = CARTESIAN_POINT ( 'NONE',  ( -1.530808498934190100E-015, -12.50000000000000000, 0.001732850113934809900 ) ) ;
#281 = CARTESIAN_POINT ( 'NONE',  ( 0.0000000000000000000, 0.0000000000000000000, 0.0000000000000000000 ) ) ;
#282 = AXIS2_PLACEMENT_3D ( 'NONE', #26, #301, #24 ) ;
#283 = DIRECTION ( 'NONE',  ( -1.734723475976810100E-020, -3.407667765548950100E-037, 1.000000000000000000 ) ) ;
#284 = CARTESIAN_POINT ( 'NONE',  ( 0.0000000000000000000, 0.0000000000000000000, 0.0000000000000000000 ) ) ;
#285 = CARTESIAN_POINT ( 'NONE',  ( 0.0000000000000000000, 0.0000000000000000000, 0.0000000000000000000 ) ) ;
#286 = CARTESIAN_POINT ( 'NONE',  ( -1.233151325579890000E-015, -10.06944472837760100, 0.0003850779603345999800 ) ) ;
#287 = CARTESIAN_POINT ( 'NONE',  ( 5.902777868564030900, -5.902777868564039700, -5.308337926150569100E-005 ) ) ;
#288 = PERSON_AND_ORGANIZATION_ROLE ( 'design_owner' ) ;
#289 = CARTESIAN_POINT ( 'NONE',  ( -12.50000000000000000, 12.50000000000000000, 0.001732850113934809900 ) ) ;
#290 = PRODUCT_DEFINITION_FORMATION_WITH_SPECIFIED_SOURCE ( 'ANY', '', #33, .NOT_KNOWN. ) ;
#291 = B_SPLINE_CURVE_WITH_KNOTS ( 'NONE', 3,
 ( #34, #134, #135, #270, #84 ),
 .UNSPECIFIED., .F., .F.,
 ( 4, 1, 4 ),
 ( 0.0000000000000000000, 0.4166666577313750100, 1.000000000000000000 ),
 .UNSPECIFIED. ) ;
#292 = CARTESIAN_POINT ( 'NONE',  ( 0.0000000000000000000, 0.0000000000000000000, 0.0000000000000000000 ) ) ;
#293 = DIRECTION ( 'NONE',  ( -1.734723475976810100E-020, -3.407667765548950100E-037, 1.000000000000000000 ) ) ;
#294 = EDGE_CURVE ( 'NONE', #72, #40, #271, .T. ) ;
#295 = CARTESIAN_POINT ( 'NONE',  ( -1.233151325579890000E-015, -10.06944472837760100, 0.0003850779603345999800 ) ) ;
#296 = APPROVAL_DATE_TIME ( #61, #93 ) ;
#297 = CARTESIAN_POINT ( 'NONE',  ( 0.0000000000000000000, 10.06944472837760100, 0.0003850779603345999800 ) ) ;
#298 = ORIENTED_EDGE ( 'NONE', *, *, #231, .F. ) ;
#299 = CARTESIAN_POINT ( 'NONE',  ( 0.0000000000000000000, 0.0000000000000000000, 0.0000000000000000000 ) ) ;
#300 = CARTESIAN_POINT ( 'NONE',  ( 12.50000000000000000, -2.296212748401289900E-015, 0.001732850113934809900 ) ) ;
#301 = DIRECTION ( 'NONE',  ( -1.734723475976810100E-020, -3.407667765548950100E-037, 1.000000000000000000 ) ) ;
#302 = APPLICATION_CONTEXT ( 'configuration controlled 3d designs of mechanical parts and assemblies' ) ;
#303 = CARTESIAN_POINT ( 'NONE',  ( 5.902777868564039700, -1.084322703422220000E-015, -5.308337926150569800E-005 ) ) ;
#304 = APPROVAL_ROLE ( '' ) ;
#305 = CARTESIAN_POINT ( 'NONE',  ( 5.902777868564039700, 5.902777868564030900, -5.308337926150569100E-005 ) ) ;
ENDSEC;
END-ISO-10303-21;
