ISO-10303-21;
HEADER;
FILE_DESCRIPTION (( 'STEP AP203' ),
    '1' );
FILE_NAME ('24950-E0W.STEP',
    '2012-10-01T14:05:22',
    ( 'Admin' ),
    ( 'Thorlabs, Inc.' ),
    'SwSTEP 2.0',
    'SolidWorks 2011',
    '' );
FILE_SCHEMA (( 'CONFIG_CONTROL_DESIGN' ));
ENDSEC;

DATA;
#1 = DIRECTION ( 'NONE',  ( 1.000000000000000000, 0.0000000000000000000, 0.0000000000000000000 ) ) ;
#2 = DIRECTION ( 'NONE',  ( 1.000000000000000000, 0.0000000000000000000, 0.0000000000000000000 ) ) ;
#3 = CARTESIAN_POINT ( 'NONE',  ( 0.0000000000000000000, 0.0000000000000000000, 0.1453995828268953000 ) ) ;
#4 = DIRECTION ( 'NONE',  ( -0.0000000000000000000, -0.0000000000000000000, 1.000000000000000000 ) ) ;
#5 = AXIS2_PLACEMENT_3D ( 'NONE', #3, #4, #2 ) ;
#6 = CIRCLE ( 'NONE', #5, 12.55857864376269200 ) ;
#7 = AXIS2_PLACEMENT_3D ( 'NONE', #10, #9, #1 ) ;
#8 = CIRCLE ( 'NONE', #7, 12.69999999999999900 ) ;
#9 = DIRECTION ( 'NONE',  ( -0.0000000000000000000, -0.0000000000000000000, 1.000000000000000000 ) ) ;
#10 = CARTESIAN_POINT ( 'NONE',  ( 0.0000000000000000000, 0.0000000000000000000, -1.753578643762687700 ) ) ;
#11 = EDGE_CURVE ( 'NONE', #45, #100, #58, .T. ) ;
#12 = EDGE_LOOP ( 'NONE', ( #20, #22, #83, #79 ) ) ;
#13 = EDGE_CURVE ( 'NONE', #16, #21, #54, .T. ) ;
#14 = EDGE_CURVE ( 'NONE', #99, #21, #75, .T. ) ;
#15 = EDGE_CURVE ( 'NONE', #16, #17, #50, .T. ) ;
#16 = VERTEX_POINT ( 'NONE', #113 ) ;
#17 = VERTEX_POINT ( 'NONE', #112 ) ;
#18 = ADVANCED_FACE ( 'NONE', ( #129 ), #140, .T. ) ;
#19 = ORIENTED_EDGE ( 'NONE', *, *, #48, .T. ) ;
#20 = ORIENTED_EDGE ( 'NONE', *, *, #15, .F. ) ;
#21 = VERTEX_POINT ( 'NONE', #139 ) ;
#22 = ORIENTED_EDGE ( 'NONE', *, *, #13, .T. ) ;
#23 = ORIENTED_EDGE ( 'NONE', *, *, #82, .F. ) ;
#24 = EDGE_CURVE ( 'NONE', #100, #80, #145, .T. ) ;
#25 = ADVANCED_FACE ( 'NONE', ( #136 ), #105, .T. ) ;
#26 = EDGE_CURVE ( 'NONE', #80, #21, #114, .T. ) ;
#27 = ORIENTED_EDGE ( 'NONE', *, *, #13, .F. ) ;
#28 = ORIENTED_EDGE ( 'NONE', *, *, #26, .F. ) ;
#29 = EDGE_LOOP ( 'NONE', ( #27, #37, #86, #65 ) ) ;
#30 = ADVANCED_FACE ( 'NONE', ( #110 ), #107, .T. ) ;
#31 = EDGE_CURVE ( 'NONE', #17, #61, #122, .T. ) ;
#32 = ORIENTED_EDGE ( 'NONE', *, *, #48, .F. ) ;
#33 = ADVANCED_FACE ( 'NONE', ( #127 ), #118, .T. ) ;
#34 = ORIENTED_EDGE ( 'NONE', *, *, #63, .F. ) ;
#35 = ORIENTED_EDGE ( 'NONE', *, *, #15, .T. ) ;
#36 = EDGE_CURVE ( 'NONE', #100, #99, #8, .T. ) ;
#37 = ORIENTED_EDGE ( 'NONE', *, *, #40, .F. ) ;
#38 = ORIENTED_EDGE ( 'NONE', *, *, #43, .T. ) ;
#39 = ORIENTED_EDGE ( 'NONE', *, *, #24, .F. ) ;
#40 = EDGE_CURVE ( 'NONE', #17, #16, #6, .T. ) ;
#41 = ORIENTED_EDGE ( 'NONE', *, *, #62, .T. ) ;
#42 = EDGE_LOOP ( 'NONE', ( #32, #34 ) ) ;
#43 = EDGE_CURVE ( 'NONE', #47, #99, #149, .T. ) ;
#44 = ORIENTED_EDGE ( 'NONE', *, *, #43, .F. ) ;
#45 = VERTEX_POINT ( 'NONE', #166 ) ;
#46 = ORIENTED_EDGE ( 'NONE', *, *, #103, .F. ) ;
#47 = VERTEX_POINT ( 'NONE', #150 ) ;
#48 = EDGE_CURVE ( 'NONE', #47, #45, #165, .T. ) ;
#49 = ORIENTED_EDGE ( 'NONE', *, *, #11, .T. ) ;
#50 = CIRCLE ( 'NONE', #76, 12.55857864376269200 ) ;
#51 = DIRECTION ( 'NONE',  ( 0.7071067811865345800, 8.659560562354775100E-017, -0.7071067811865604500 ) ) ;
#52 = VECTOR ( 'NONE', #51, 1000.000000000000000 ) ;
#53 = CARTESIAN_POINT ( 'NONE',  ( 12.69999999999999900, 1.555301434917138400E-015, 0.003978226589582134500 ) ) ;
#54 = LINE ( 'NONE', #53, #52 ) ;
#55 = DIRECTION ( 'NONE',  ( -0.7071067811865388000, 8.659560562354826900E-017, 0.7071067811865561200 ) ) ;
#56 = VECTOR ( 'NONE', #55, 1000.000000000000100 ) ;
#57 = CARTESIAN_POINT ( 'NONE',  ( -12.55857864376269000, 1.537982313792428700E-015, -1.895000000000000900 ) ) ;
#58 = LINE ( 'NONE', #57, #56 ) ;
#59 = CARTESIAN_POINT ( 'NONE',  ( 0.0000000000000000000, 0.0000000000000000000, 0.1453995828268953000 ) ) ;
#60 = EDGE_LOOP ( 'NONE', ( #88, #68, #38, #87 ) ) ;
#61 = VERTEX_POINT ( 'NONE', #163 ) ;
#62 = EDGE_CURVE ( 'NONE', #16, #61, #167, .T. ) ;
#63 = EDGE_CURVE ( 'NONE', #45, #47, #162, .T. ) ;
#64 = ORIENTED_EDGE ( 'NONE', *, *, #40, .T. ) ;
#65 = ORIENTED_EDGE ( 'NONE', *, *, #26, .T. ) ;
#66 = ADVANCED_FACE ( 'NONE', ( #255 ), #251, .T. ) ;
#67 = ORIENTED_EDGE ( 'NONE', *, *, #31, .F. ) ;
#68 = ORIENTED_EDGE ( 'NONE', *, *, #63, .T. ) ;
#69 = EDGE_LOOP ( 'NONE', ( #67, #64, #41 ) ) ;
#70 = DIRECTION ( 'NONE',  ( 1.000000000000000000, 0.0000000000000000000, 0.0000000000000000000 ) ) ;
#71 = DIRECTION ( 'NONE',  ( -0.0000000000000000000, -0.0000000000000000000, 1.000000000000000000 ) ) ;
#72 = DIRECTION ( 'NONE',  ( -0.0000000000000000000, -0.0000000000000000000, 1.000000000000000000 ) ) ;
#73 = VECTOR ( 'NONE', #72, 1000.000000000000000 ) ;
#74 = CARTESIAN_POINT ( 'NONE',  ( 12.69999999999999900, 0.0000000000000000000, 35.72254576870004400 ) ) ;
#75 = LINE ( 'NONE', #74, #73 ) ;
#76 = AXIS2_PLACEMENT_3D ( 'NONE', #59, #71, #70 ) ;
#77 = CLOSED_SHELL ( 'NONE', ( #18, #97, #25, #30, #33, #93, #66, #90, #85 ) ) ;
#78 = MANIFOLD_SOLID_BREP ( '24981-001-1-solid1', #77 ) ;
#79 = ORIENTED_EDGE ( 'NONE', *, *, #104, .F. ) ;
#80 = VERTEX_POINT ( 'NONE', #296 ) ;
#81 = ORIENTED_EDGE ( 'NONE', *, *, #24, .T. ) ;
#82 = EDGE_CURVE ( 'NONE', #21, #80, #285, .T. ) ;
#83 = ORIENTED_EDGE ( 'NONE', *, *, #82, .T. ) ;
#84 = EDGE_LOOP ( 'NONE', ( #19, #49, #46, #44 ) ) ;
#85 = ADVANCED_FACE ( 'NONE', ( #298 ), #297, .T. ) ;
#86 = ORIENTED_EDGE ( 'NONE', *, *, #104, .T. ) ;
#87 = ORIENTED_EDGE ( 'NONE', *, *, #36, .F. ) ;
#88 = ORIENTED_EDGE ( 'NONE', *, *, #11, .F. ) ;
#89 = ORIENTED_EDGE ( 'NONE', *, *, #62, .F. ) ;
#90 = ADVANCED_FACE ( 'NONE', ( #215 ), #286, .T. ) ;
#91 = ORIENTED_EDGE ( 'NONE', *, *, #14, .T. ) ;
#92 = EDGE_LOOP ( 'NONE', ( #39, #96, #91, #28 ) ) ;
#93 = ADVANCED_FACE ( 'NONE', ( #211 ), #210, .F. ) ;
#94 = ORIENTED_EDGE ( 'NONE', *, *, #31, .T. ) ;
#95 = EDGE_LOOP ( 'NONE', ( #35, #94, #89 ) ) ;
#96 = ORIENTED_EDGE ( 'NONE', *, *, #36, .T. ) ;
#97 = ADVANCED_FACE ( 'NONE', ( #289 ), #208, .T. ) ;
#98 = ORIENTED_EDGE ( 'NONE', *, *, #14, .F. ) ;
#99 = VERTEX_POINT ( 'NONE', #202 ) ;
#100 = VERTEX_POINT ( 'NONE', #201 ) ;
#101 = EDGE_LOOP ( 'NONE', ( #102, #81, #23, #98 ) ) ;
#102 = ORIENTED_EDGE ( 'NONE', *, *, #103, .T. ) ;
#103 = EDGE_CURVE ( 'NONE', #99, #100, #205, .T. ) ;
#104 = EDGE_CURVE ( 'NONE', #17, #80, #207, .T. ) ;
#105 = CONICAL_SURFACE ( 'NONE', #133, 12.55857864376269000, 0.7853981633974360700 ) ;
#106 = CARTESIAN_POINT ( 'NONE',  ( 0.0000000000000000000, 0.0000000000000000000, 0.003978226589582134500 ) ) ;
#107 = TOROIDAL_SURFACE ( 'NONE', #119, -0.008728229770511158900, 46.00999999999999100 ) ;
#108 = DIRECTION ( 'NONE',  ( -0.0000000000000000000, -0.0000000000000000000, 1.000000000000000000 ) ) ;
#109 = AXIS2_PLACEMENT_3D ( 'NONE', #128, #121, #120 ) ;
#110 = FACE_OUTER_BOUND ( 'NONE', #95, .T. ) ;
#111 = CARTESIAN_POINT ( 'NONE',  ( 0.0000000000000000000, 0.0000000000000000000, 0.003978226589582134500 ) ) ;
#112 = CARTESIAN_POINT ( 'NONE',  ( -12.55857864376269200, 1.537982313792428900E-015, 0.1453995828268987700 ) ) ;
#113 = CARTESIAN_POINT ( 'NONE',  ( 12.55857864376269200, 0.0000000000000000000, 0.1453995828268987700 ) ) ;
#114 = CIRCLE ( 'NONE', #125, 12.69999999999999900 ) ;
#115 = DIRECTION ( 'NONE',  ( 1.000000000000000000, 0.0000000000000000000, 0.0000000000000000000 ) ) ;
#116 = DIRECTION ( 'NONE',  ( -0.0000000000000000000, -0.0000000000000000000, 1.000000000000000000 ) ) ;
#117 = CARTESIAN_POINT ( 'NONE',  ( 0.0000000000000000000, 0.0000000000000000000, -44.11499917211480000 ) ) ;
#118 = TOROIDAL_SURFACE ( 'NONE', #109, -0.008728229770511158900, 46.00999999999999100 ) ;
#119 = AXIS2_PLACEMENT_3D ( 'NONE', #117, #116, #115 ) ;
#120 = DIRECTION ( 'NONE',  ( 1.000000000000000000, 0.0000000000000000000, 0.0000000000000000000 ) ) ;
#121 = DIRECTION ( 'NONE',  ( -0.0000000000000000000, -0.0000000000000000000, 1.000000000000000000 ) ) ;
#122 = CIRCLE ( 'NONE', #132, 46.00999999999998400 ) ;
#123 = DIRECTION ( 'NONE',  ( 1.000000000000000000, 0.0000000000000000000, 0.0000000000000000000 ) ) ;
#124 = DIRECTION ( 'NONE',  ( -0.0000000000000000000, -0.0000000000000000000, 1.000000000000000000 ) ) ;
#125 = AXIS2_PLACEMENT_3D ( 'NONE', #106, #124, #123 ) ;
#126 = CARTESIAN_POINT ( 'NONE',  ( 0.008728229770511158900, -1.068899865067912800E-018, -44.11499917211480000 ) ) ;
#127 = FACE_OUTER_BOUND ( 'NONE', #69, .T. ) ;
#128 = CARTESIAN_POINT ( 'NONE',  ( 0.0000000000000000000, 0.0000000000000000000, -44.11499917211480000 ) ) ;
#129 = FACE_OUTER_BOUND ( 'NONE', #12, .T. ) ;
#130 = DIRECTION ( 'NONE',  ( -1.000000000000000000, 1.224646799147353500E-016, 0.0000000000000000000 ) ) ;
#131 = DIRECTION ( 'NONE',  ( 1.224646799147353200E-016, 1.000000000000000000, 0.0000000000000000000 ) ) ;
#132 = AXIS2_PLACEMENT_3D ( 'NONE', #126, #131, #130 ) ;
#133 = AXIS2_PLACEMENT_3D ( 'NONE', #137, #108, #141 ) ;
#134 = DIRECTION ( 'NONE',  ( -1.000000000000000000, 0.0000000000000000000, 0.0000000000000000000 ) ) ;
#135 = DIRECTION ( 'NONE',  ( 0.0000000000000000000, 0.0000000000000000000, -1.000000000000000000 ) ) ;
#136 = FACE_OUTER_BOUND ( 'NONE', #84, .T. ) ;
#137 = CARTESIAN_POINT ( 'NONE',  ( 0.0000000000000000000, 0.0000000000000000000, -1.895000000000000900 ) ) ;
#138 = AXIS2_PLACEMENT_3D ( 'NONE', #111, #135, #134 ) ;
#139 = CARTESIAN_POINT ( 'NONE',  ( 12.69999999999999900, 0.0000000000000000000, 0.003978226589582134500 ) ) ;
#140 = CONICAL_SURFACE ( 'NONE', #138, 12.69999999999999900, 0.7853981633974300700 ) ;
#141 = DIRECTION ( 'NONE',  ( 1.000000000000000000, 0.0000000000000000000, 0.0000000000000000000 ) ) ;
#142 = DIRECTION ( 'NONE',  ( -0.0000000000000000000, -0.0000000000000000000, 1.000000000000000000 ) ) ;
#143 = VECTOR ( 'NONE', #142, 1000.000000000000000 ) ;
#144 = CARTESIAN_POINT ( 'NONE',  ( -12.69999999999999900, 1.555301434917138400E-015, 35.72254576870004400 ) ) ;
#145 = LINE ( 'NONE', #144, #143 ) ;
#146 = DIRECTION ( 'NONE',  ( 0.7071067811865388000, 0.0000000000000000000, 0.7071067811865561200 ) ) ;
#147 = VECTOR ( 'NONE', #146, 1000.000000000000100 ) ;
#148 = CARTESIAN_POINT ( 'NONE',  ( 12.55857864376269000, 0.0000000000000000000, -1.895000000000000900 ) ) ;
#149 = LINE ( 'NONE', #148, #147 ) ;
#150 = CARTESIAN_POINT ( 'NONE',  ( 12.55857864376269000, 0.0000000000000000000, -1.895000000000000900 ) ) ;
#151 = AXIS2_PLACEMENT_3D ( 'NONE', #152, #157, #156 ) ;
#152 = CARTESIAN_POINT ( 'NONE',  ( -0.008728229770511158900, 0.0000000000000000000, -44.11499917211480000 ) ) ;
#153 = DIRECTION ( 'NONE',  ( 1.000000000000000000, 0.0000000000000000000, 0.0000000000000000000 ) ) ;
#154 = DIRECTION ( 'NONE',  ( -0.0000000000000000000, -0.0000000000000000000, 1.000000000000000000 ) ) ;
#155 = CARTESIAN_POINT ( 'NONE',  ( 0.0000000000000000000, 0.0000000000000000000, -1.895000000000000900 ) ) ;
#156 = DIRECTION ( 'NONE',  ( 0.0000000000000000000, 0.0000000000000000000, -1.000000000000000000 ) ) ;
#157 = DIRECTION ( 'NONE',  ( 0.0000000000000000000, -1.000000000000000000, 0.0000000000000000000 ) ) ;
#158 = AXIS2_PLACEMENT_3D ( 'NONE', #155, #154, #153 ) ;
#159 = DIRECTION ( 'NONE',  ( 1.000000000000000000, 0.0000000000000000000, 0.0000000000000000000 ) ) ;
#160 = DIRECTION ( 'NONE',  ( -0.0000000000000000000, -0.0000000000000000000, 1.000000000000000000 ) ) ;
#161 = AXIS2_PLACEMENT_3D ( 'NONE', #164, #160, #159 ) ;
#162 = CIRCLE ( 'NONE', #158, 12.55857864376269000 ) ;
#163 = CARTESIAN_POINT ( 'NONE',  ( 0.0000000000000000000, 0.0000000000000000000, 1.895000000000000000 ) ) ;
#164 = CARTESIAN_POINT ( 'NONE',  ( 0.0000000000000000000, 0.0000000000000000000, -1.895000000000000900 ) ) ;
#165 = CIRCLE ( 'NONE', #161, 12.55857864376269000 ) ;
#166 = CARTESIAN_POINT ( 'NONE',  ( -12.55857864376269000, 1.546641874354783400E-015, -1.895000000000000900 ) ) ;
#167 = CIRCLE ( 'NONE', #151, 46.00999999999998400 ) ;
#168 = PRODUCT_DEFINITION_SHAPE ( 'NONE', 'NONE',  #232 ) ;
#169 = PRODUCT_RELATED_PRODUCT_CATEGORY ( 'detail', '', ( #241 ) ) ;
#170 = CC_DESIGN_SECURITY_CLASSIFICATION ( #191, ( #275 ) ) ;
#171 = CC_DESIGN_APPROVAL ( #179, ( #191 ) ) ;
#172 = APPROVAL_DATE_TIME ( #173, #179 ) ;
#173 = DATE_AND_TIME ( #174, #175 ) ;
#174 = CALENDAR_DATE ( 2012, 1, 10 ) ;
#175 = LOCAL_TIME ( 10, 5, 22.00000000000000000, #176 ) ;
#176 = COORDINATED_UNIVERSAL_TIME_OFFSET ( 5, 0, .BEHIND. ) ;
#177 = APPROVAL_PERSON_ORGANIZATION ( #181, #179, #178 ) ;
#178 = APPROVAL_ROLE ( '' ) ;
#179 = APPROVAL ( #180, 'UNSPECIFIED' ) ;
#180 = APPROVAL_STATUS ( 'not_yet_approved' ) ;
#181 = PERSON_AND_ORGANIZATION ( #240, #239 ) ;
#182 = CC_DESIGN_DATE_AND_TIME_ASSIGNMENT ( #184, #183, ( #191 ) ) ;
#183 = DATE_TIME_ROLE ( 'classification_date' ) ;
#184 = DATE_AND_TIME ( #185, #186 ) ;
#185 = CALENDAR_DATE ( 2012, 1, 10 ) ;
#186 = LOCAL_TIME ( 10, 5, 22.00000000000000000, #187 ) ;
#187 = COORDINATED_UNIVERSAL_TIME_OFFSET ( 5, 0, .BEHIND. ) ;
#188 = CC_DESIGN_PERSON_AND_ORGANIZATION_ASSIGNMENT ( #190, #189, ( #191 ) ) ;
#189 = PERSON_AND_ORGANIZATION_ROLE ( 'classification_officer' ) ;
#190 = PERSON_AND_ORGANIZATION ( #240, #239 ) ;
#191 = SECURITY_CLASSIFICATION ( '', '', #192 ) ;
#192 = SECURITY_CLASSIFICATION_LEVEL ( 'unclassified' ) ;
#193 = CC_DESIGN_PERSON_AND_ORGANIZATION_ASSIGNMENT ( #195, #194, ( #275 ) ) ;
#194 = PERSON_AND_ORGANIZATION_ROLE ( 'design_supplier' ) ;
#195 = PERSON_AND_ORGANIZATION ( #240, #239 ) ;
#196 = DIRECTION ( 'NONE',  ( 1.000000000000000000, 0.0000000000000000000, 0.0000000000000000000 ) ) ;
#197 = DIRECTION ( 'NONE',  ( -0.0000000000000000000, -0.0000000000000000000, 1.000000000000000000 ) ) ;
#198 = CARTESIAN_POINT ( 'NONE',  ( 0.0000000000000000000, 0.0000000000000000000, -1.753578643762687700 ) ) ;
#199 = AXIS2_PLACEMENT_3D ( 'NONE', #198, #197, #196 ) ;
#200 = CARTESIAN_POINT ( 'NONE',  ( 0.0000000000000000000, 0.0000000000000000000, 0.0000000000000000000 ) ) ;
#201 = CARTESIAN_POINT ( 'NONE',  ( -12.69999999999999900, 1.555301434917138400E-015, -1.753578643762687700 ) ) ;
#202 = CARTESIAN_POINT ( 'NONE',  ( 12.69999999999999900, 0.0000000000000000000, -1.753578643762687700 ) ) ;
#203 = DIRECTION ( 'NONE',  ( 1.000000000000000000, 0.0000000000000000000, 0.0000000000000000000 ) ) ;
#204 = DIRECTION ( 'NONE',  ( 0.0000000000000000000, -0.0000000000000000000, 1.000000000000000000 ) ) ;
#205 = CIRCLE ( 'NONE', #199, 12.69999999999999900 ) ;
#206 = AXIS2_PLACEMENT_3D ( 'NONE', #288, #209, #294 ) ;
#207 = LINE ( 'NONE', #260, #259 ) ;
#208 = CYLINDRICAL_SURFACE ( 'NONE', #206, 12.69999999999999900 ) ;
#209 = DIRECTION ( 'NONE',  ( -0.0000000000000000000, -0.0000000000000000000, 1.000000000000000000 ) ) ;
#210 = PLANE ( 'NONE',  #212 ) ;
#211 = FACE_OUTER_BOUND ( 'NONE', #42, .T. ) ;
#212 = AXIS2_PLACEMENT_3D ( 'NONE', #254, #204, #203 ) ;
#213 = DIRECTION ( 'NONE',  ( -1.000000000000000000, 0.0000000000000000000, 0.0000000000000000000 ) ) ;
#214 = DIRECTION ( 'NONE',  ( 1.000000000000000000, 0.0000000000000000000, 0.0000000000000000000 ) ) ;
#215 = FACE_OUTER_BOUND ( 'NONE', #92, .T. ) ;
#216 = DIRECTION ( 'NONE',  ( 0.0000000000000000000, 0.0000000000000000000, -1.000000000000000000 ) ) ;
#217 = AXIS2_PLACEMENT_3D ( 'NONE', #253, #287, #214 ) ;
#218 = CARTESIAN_POINT ( 'NONE',  ( 0.0000000000000000000, 0.0000000000000000000, 0.003978226589582134500 ) ) ;
#219 = DIRECTION ( 'NONE',  ( 1.000000000000000000, 0.0000000000000000000, 0.0000000000000000000 ) ) ;
#220 = DIRECTION ( 'NONE',  ( -0.0000000000000000000, -0.0000000000000000000, 1.000000000000000000 ) ) ;
#221 = CC_DESIGN_APPROVAL ( #229, ( #232 ) ) ;
#222 = APPROVAL_DATE_TIME ( #223, #229 ) ;
#223 = DATE_AND_TIME ( #224, #225 ) ;
#224 = CALENDAR_DATE ( 2012, 1, 10 ) ;
#225 = LOCAL_TIME ( 10, 5, 22.00000000000000000, #226 ) ;
#226 = COORDINATED_UNIVERSAL_TIME_OFFSET ( 5, 0, .BEHIND. ) ;
#227 = APPROVAL_PERSON_ORGANIZATION ( #231, #229, #228 ) ;
#228 = APPROVAL_ROLE ( '' ) ;
#229 = APPROVAL ( #230, 'UNSPECIFIED' ) ;
#230 = APPROVAL_STATUS ( 'not_yet_approved' ) ;
#231 = PERSON_AND_ORGANIZATION ( #240, #239 ) ;
#232 = PRODUCT_DEFINITION ( 'UNKNOWN', '', #275, #233 ) ;
#233 = DESIGN_CONTEXT ( 'detailed design', #235, 'design' ) ;
#234 = APPLICATION_PROTOCOL_DEFINITION ( 'international standard', 'config_control_design', 1994, #235 ) ;
#235 = APPLICATION_CONTEXT ( 'configuration controlled 3d designs of mechanical parts and assemblies' ) ;
#236 = CC_DESIGN_PERSON_AND_ORGANIZATION_ASSIGNMENT ( #238, #237, ( #241 ) ) ;
#237 = PERSON_AND_ORGANIZATION_ROLE ( 'design_owner' ) ;
#238 = PERSON_AND_ORGANIZATION ( #240, #239 ) ;
#239 = ORGANIZATION ( 'UNSPECIFIED', 'UNSPECIFIED', '' ) ;
#240 = PERSON ( 'UNSPECIFIED', 'UNSPECIFIED', 'UNSPECIFIED', ('UNSPECIFIED'), ('UNSPECIFIED'), ('UNSPECIFIED') ) ;
#241 = PRODUCT ( '24950-E0W', '24950-E0W', '', ( #242 ) ) ;
#242 = MECHANICAL_CONTEXT ( 'NONE', #248, 'mechanical' ) ;
#243 = APPLICATION_PROTOCOL_DEFINITION ( 'international standard', 'config_control_design', 1994, #248 ) ;
#244 = DIRECTION ( 'NONE',  ( 0.0000000000000000000, 0.0000000000000000000, 1.000000000000000000 ) ) ;
#245 = AXIS2_PLACEMENT_3D ( 'NONE', #200, #244, #247 ) ;
#246 = SHAPE_DEFINITION_REPRESENTATION ( #168, #249 ) ;
#247 = DIRECTION ( 'NONE',  ( 1.000000000000000000, 0.0000000000000000000, 0.0000000000000000000 ) ) ;
#248 = APPLICATION_CONTEXT ( 'configuration controlled 3d designs of mechanical parts and assemblies' ) ;
#249 = ADVANCED_BREP_SHAPE_REPRESENTATION ( '24950-E0W', ( #78, #245 ), #250 ) ;
#250 =( GEOMETRIC_REPRESENTATION_CONTEXT ( 3 ) GLOBAL_UNCERTAINTY_ASSIGNED_CONTEXT ( ( #299 ) ) GLOBAL_UNIT_ASSIGNED_CONTEXT ( ( #257, #301, #300 ) ) REPRESENTATION_CONTEXT ( 'NONE', 'WORKASPACE' ) );
#251 = CONICAL_SURFACE ( 'NONE', #293, 12.55857864376269000, 0.7853981633974360700 ) ;
#252 = AXIS2_PLACEMENT_3D ( 'NONE', #295, #220, #219 ) ;
#253 = CARTESIAN_POINT ( 'NONE',  ( 0.0000000000000000000, 0.0000000000000000000, 35.72254576870004400 ) ) ;
#254 = CARTESIAN_POINT ( 'NONE',  ( 0.0000000000000000000, 0.0000000000000000000, -1.895000000000000000 ) ) ;
#255 = FACE_OUTER_BOUND ( 'NONE', #60, .T. ) ;
#256 = AXIS2_PLACEMENT_3D ( 'NONE', #218, #216, #213 ) ;
#257 =( LENGTH_UNIT ( ) NAMED_UNIT ( * ) SI_UNIT ( .MILLI., .METRE. ) );
#258 = DIRECTION ( 'NONE',  ( -0.7071067811865345800, 0.0000000000000000000, -0.7071067811865604500 ) ) ;
#259 = VECTOR ( 'NONE', #258, 1000.000000000000000 ) ;
#260 = CARTESIAN_POINT ( 'NONE',  ( -12.69999999999999900, 0.0000000000000000000, 0.003978226589582134500 ) ) ;
#261 = CC_DESIGN_PERSON_AND_ORGANIZATION_ASSIGNMENT ( #263, #262, ( #275 ) ) ;
#262 = PERSON_AND_ORGANIZATION_ROLE ( 'creator' ) ;
#263 = PERSON_AND_ORGANIZATION ( #240, #239 ) ;
#264 = CC_DESIGN_APPROVAL ( #272, ( #275 ) ) ;
#265 = APPROVAL_DATE_TIME ( #266, #272 ) ;
#266 = DATE_AND_TIME ( #267, #268 ) ;
#267 = CALENDAR_DATE ( 2012, 1, 10 ) ;
#268 = LOCAL_TIME ( 10, 5, 22.00000000000000000, #269 ) ;
#269 = COORDINATED_UNIVERSAL_TIME_OFFSET ( 5, 0, .BEHIND. ) ;
#270 = APPROVAL_PERSON_ORGANIZATION ( #274, #272, #271 ) ;
#271 = APPROVAL_ROLE ( '' ) ;
#272 = APPROVAL ( #273, 'UNSPECIFIED' ) ;
#273 = APPROVAL_STATUS ( 'not_yet_approved' ) ;
#274 = PERSON_AND_ORGANIZATION ( #240, #239 ) ;
#275 = PRODUCT_DEFINITION_FORMATION_WITH_SPECIFIED_SOURCE ( 'ANY', '', #241, .NOT_KNOWN. ) ;
#276 = CC_DESIGN_DATE_AND_TIME_ASSIGNMENT ( #278, #277, ( #232 ) ) ;
#277 = DATE_TIME_ROLE ( 'creation_date' ) ;
#278 = DATE_AND_TIME ( #279, #280 ) ;
#279 = CALENDAR_DATE ( 2012, 1, 10 ) ;
#280 = LOCAL_TIME ( 10, 5, 22.00000000000000000, #281 ) ;
#281 = COORDINATED_UNIVERSAL_TIME_OFFSET ( 5, 0, .BEHIND. ) ;
#282 = CC_DESIGN_PERSON_AND_ORGANIZATION_ASSIGNMENT ( #284, #283, ( #232 ) ) ;
#283 = PERSON_AND_ORGANIZATION_ROLE ( 'creator' ) ;
#284 = PERSON_AND_ORGANIZATION ( #240, #239 ) ;
#285 = CIRCLE ( 'NONE', #252, 12.69999999999999900 ) ;
#286 = CYLINDRICAL_SURFACE ( 'NONE', #217, 12.69999999999999900 ) ;
#287 = DIRECTION ( 'NONE',  ( -0.0000000000000000000, -0.0000000000000000000, 1.000000000000000000 ) ) ;
#288 = CARTESIAN_POINT ( 'NONE',  ( 0.0000000000000000000, 0.0000000000000000000, 35.72254576870004400 ) ) ;
#289 = FACE_OUTER_BOUND ( 'NONE', #101, .T. ) ;
#290 = DIRECTION ( 'NONE',  ( 1.000000000000000000, 0.0000000000000000000, 0.0000000000000000000 ) ) ;
#291 = DIRECTION ( 'NONE',  ( -0.0000000000000000000, -0.0000000000000000000, 1.000000000000000000 ) ) ;
#292 = CARTESIAN_POINT ( 'NONE',  ( 0.0000000000000000000, 0.0000000000000000000, -1.895000000000000900 ) ) ;
#293 = AXIS2_PLACEMENT_3D ( 'NONE', #292, #291, #290 ) ;
#294 = DIRECTION ( 'NONE',  ( 1.000000000000000000, 0.0000000000000000000, 0.0000000000000000000 ) ) ;
#295 = CARTESIAN_POINT ( 'NONE',  ( 0.0000000000000000000, 0.0000000000000000000, 0.003978226589582134500 ) ) ;
#296 = CARTESIAN_POINT ( 'NONE',  ( -12.69999999999999900, 1.555301434917138400E-015, 0.003978226589582134500 ) ) ;
#297 = CONICAL_SURFACE ( 'NONE', #256, 12.69999999999999900, 0.7853981633974300700 ) ;
#298 = FACE_OUTER_BOUND ( 'NONE', #29, .T. ) ;
#299 = UNCERTAINTY_MEASURE_WITH_UNIT (LENGTH_MEASURE( 1.000000000000000100E-005 ), #257, 'distance_accuracy_value', 'NONE');
#300 =( NAMED_UNIT ( * ) SI_UNIT ( $, .STERADIAN. ) SOLID_ANGLE_UNIT ( ) );
#301 =( NAMED_UNIT ( * ) PLANE_ANGLE_UNIT ( ) SI_UNIT ( $, .RADIAN. ) );
ENDSEC;
END-ISO-10303-21;
