ISO-10303-21;
HEADER;
FILE_DESCRIPTION (( 'STEP AP203' ),
    '1' );
FILE_NAME ('20131-E0W.STEP',
    '2019-07-16T11:11:06',
    ( '' ),
    ( '' ),
    'SwSTEP 2.0',
    'SolidWorks 2018',
    '' );
FILE_SCHEMA (( 'CONFIG_CONTROL_DESIGN' ));
ENDSEC;

DATA;
#1 = DATE_AND_TIME ( #193, #219 ) ;
#2 = ORIENTED_EDGE ( 'NONE', *, *, #210, .T. ) ;
#3 = CARTESIAN_POINT ( 'NONE',  ( 0.0000000000000000000, 1.716898108058973376E-16, -0.3760000000000001674 ) ) ;
#4 = CC_DESIGN_DATE_AND_TIME_ASSIGNMENT ( #1, #241, ( #94 ) ) ;
#5 = ORIENTED_EDGE ( 'NONE', *, *, #237, .T. ) ;
#6 = ADVANCED_FACE ( 'NONE', ( #123 ), #194, .T. ) ;
#7 = DIRECTION ( 'NONE',  ( -0.0000000000000000000, 3.061515884555943639E-16, -1.000000000000000000 ) ) ;
#8 = LOCAL_TIME ( 7, 11, 6.000000000000000000, #133 ) ;
#9 = CARTESIAN_POINT ( 'NONE',  ( 0.0000000000000000000, -1.250000000000000666, -0.3760000000000005560 ) ) ;
#10 = CARTESIAN_POINT ( 'NONE',  ( 0.0000000000000000000, 1.269999999999995355, -0.3759999999999996123 ) ) ;
#11 = PERSON_AND_ORGANIZATION_ROLE ( 'creator' ) ;
#12 = PERSON_AND_ORGANIZATION ( #208, #85 ) ;
#13 = VERTEX_POINT ( 'NONE', #83 ) ;
#14 = COORDINATED_UNIVERSAL_TIME_OFFSET ( 5, 0, .BEHIND. ) ;
#15 = CC_DESIGN_PERSON_AND_ORGANIZATION_ASSIGNMENT ( #12, #31, ( #151 ) ) ;
#16 = ADVANCED_FACE ( 'NONE', ( #142 ), #42, .T. ) ;
#17 = PERSON_AND_ORGANIZATION ( #208, #85 ) ;
#18 = VECTOR ( 'NONE', #221, 100.0000000000000142 ) ;
#19 = DIRECTION ( 'NONE',  ( 0.0000000000000000000, 1.000000000000000000, 3.073328992872319047E-16 ) ) ;
#20 = ORIENTED_EDGE ( 'NONE', *, *, #139, .F. ) ;
#21 = COORDINATED_UNIVERSAL_TIME_OFFSET ( 5, 0, .BEHIND. ) ;
#22 = CARTESIAN_POINT ( 'NONE',  ( 0.0000000000000000000, 1.716898108058973376E-16, -0.3760000000000001674 ) ) ;
#23 = DATE_AND_TIME ( #227, #149 ) ;
#24 = CARTESIAN_POINT ( 'NONE',  ( 0.0000000000000000000, 1.539330186754727283E-16, -1.358999999999976893 ) ) ;
#25 = EDGE_CURVE ( 'NONE', #116, #55, #239, .T. ) ;
#26 = PERSON_AND_ORGANIZATION_ROLE ( 'classification_officer' ) ;
#27 = APPROVAL_STATUS ( 'not_yet_approved' ) ;
#28 = SECURITY_CLASSIFICATION ( '', '', #114 ) ;
#29 = APPROVAL_STATUS ( 'not_yet_approved' ) ;
#30 = PERSON_AND_ORGANIZATION ( #208, #85 ) ;
#31 = PERSON_AND_ORGANIZATION_ROLE ( 'design_supplier' ) ;
#32 = AXIS2_PLACEMENT_3D ( 'NONE', #184, #168, #88 ) ;
#33 = CC_DESIGN_APPROVAL ( #225, ( #151 ) ) ;
#34 = AXIS2_PLACEMENT_3D ( 'NONE', #63, #112, #171 ) ;
#35 = AXIS2_PLACEMENT_3D ( 'NONE', #3, #163, #125 ) ;
#36 = ORIENTED_EDGE ( 'NONE', *, *, #106, .F. ) ;
#37 = APPROVAL_PERSON_ORGANIZATION ( #30, #243, #175 ) ;
#38 = AXIS2_PLACEMENT_3D ( 'NONE', #152, #87, #47 ) ;
#39 = EDGE_CURVE ( 'NONE', #55, #116, #40, .T. ) ;
#40 = CIRCLE ( 'NONE', #117, 1.269999999999990470 ) ;
#41 = CARTESIAN_POINT ( 'NONE',  ( 0.0000000000000000000, 1.716898108058973376E-16, -0.3760000000000001674 ) ) ;
#42 = PLANE ( 'NONE',  #35 ) ;
#43 = CC_DESIGN_PERSON_AND_ORGANIZATION_ASSIGNMENT ( #156, #26, ( #28 ) ) ;
#44 = DIRECTION ( 'NONE',  ( 0.0000000000000000000, -1.000000000000000000, -3.122502256758251291E-16 ) ) ;
#45 = EDGE_LOOP ( 'NONE', ( #192, #209, #105, #206 ) ) ;
#46 = PERSON_AND_ORGANIZATION ( #208, #85 ) ;
#47 = DIRECTION ( 'NONE',  ( -1.224646799147353207E-16, 1.000000000000000000, 0.0000000000000000000 ) ) ;
#48 = AXIS2_PLACEMENT_3D ( 'NONE', #24, #91, #238 ) ;
#49 = EDGE_LOOP ( 'NONE', ( #36, #155, #132, #178 ) ) ;
#50 = DIRECTION ( 'NONE',  ( 0.0000000000000000000, 1.000000000000000000, 3.073328992872307707E-16 ) ) ;
#51 =( GEOMETRIC_REPRESENTATION_CONTEXT ( 3 ) GLOBAL_UNCERTAINTY_ASSIGNED_CONTEXT ( ( #53 ) ) GLOBAL_UNIT_ASSIGNED_CONTEXT ( ( #189, #172, #218 ) ) REPRESENTATION_CONTEXT ( 'NONE', 'WORKASPACE' ) );
#52 = ORIENTED_EDGE ( 'NONE', *, *, #153, .T. ) ;
#53 = UNCERTAINTY_MEASURE_WITH_UNIT (LENGTH_MEASURE( 1.000000000000000082E-05 ), #189, 'distance_accuracy_value', 'NONE');
#54 = AXIS2_PLACEMENT_3D ( 'NONE', #64, #108, #235 ) ;
#55 = VERTEX_POINT ( 'NONE', #230 ) ;
#56 = FACE_OUTER_BOUND ( 'NONE', #49, .T. ) ;
#57 = CC_DESIGN_APPROVAL ( #74, ( #28 ) ) ;
#58 = ORIENTED_EDGE ( 'NONE', *, *, #210, .F. ) ;
#59 = DIRECTION ( 'NONE',  ( -1.000000000000000000, 0.0000000000000000000, 0.0000000000000000000 ) ) ;
#60 = CARTESIAN_POINT ( 'NONE',  ( 0.0000000000000000000, 1.107396149840354483E-16, -0.1769149776771374583 ) ) ;
#61 = DIRECTION ( 'NONE',  ( 0.0000000000000000000, 1.000000000000000000, 3.073328992872307707E-16 ) ) ;
#62 = AXIS2_PLACEMENT_3D ( 'NONE', #79, #212, #103 ) ;
#63 = CARTESIAN_POINT ( 'NONE',  ( 0.0000000000000000000, 1.716898108058972882E-16, -0.3760000000000000009 ) ) ;
#64 = CARTESIAN_POINT ( 'NONE',  ( 0.0000000000000000000, 0.0000000000000000000, 0.0000000000000000000 ) ) ;
#65 = DIRECTION ( 'NONE',  ( -0.0000000000000000000, 3.061515884555943639E-16, -1.000000000000000000 ) ) ;
#66 = CIRCLE ( 'NONE', #246, 1.734999999999989662 ) ;
#67 = ADVANCED_BREP_SHAPE_REPRESENTATION ( '20131-E0W', ( #215, #54 ), #51 ) ;
#68 = CARTESIAN_POINT ( 'NONE',  ( 0.0000000000000000000, 1.655667790367871375E-16, -0.3560000000000056453 ) ) ;
#69 = ORIENTED_EDGE ( 'NONE', *, *, #39, .T. ) ;
#70 = LOCAL_TIME ( 7, 11, 6.000000000000000000, #118 ) ;
#71 = APPLICATION_CONTEXT ( 'configuration controlled 3d designs of mechanical parts and assemblies' ) ;
#72 = APPROVAL_DATE_TIME ( #23, #243 ) ;
#73 = SPHERICAL_SURFACE ( 'NONE', #164, 1.734999999999989662 ) ;
#74 = APPROVAL ( #29, 'UNSPECIFIED' ) ;
#75 = CC_DESIGN_PERSON_AND_ORGANIZATION_ASSIGNMENT ( #166, #126, ( #179 ) ) ;
#76 = ORIENTED_EDGE ( 'NONE', *, *, #121, .F. ) ;
#77 = SPHERICAL_SURFACE ( 'NONE', #48, 1.734999999999989662 ) ;
#78 = CC_DESIGN_DATE_AND_TIME_ASSIGNMENT ( #183, #242, ( #28 ) ) ;
#79 = CARTESIAN_POINT ( 'NONE',  ( 0.0000000000000000000, 1.107396149840354483E-16, -0.1769149776771374583 ) ) ;
#80 = CARTESIAN_POINT ( 'NONE',  ( 1.555301434917126994E-16, -1.269999999999990692, -0.1769149776771377081 ) ) ;
#81 = ADVANCED_FACE ( 'NONE', ( #248 ), #181, .T. ) ;
#82 = EDGE_LOOP ( 'NONE', ( #201, #2, #231 ) ) ;
#83 = CARTESIAN_POINT ( 'NONE',  ( 1.543054966925662117E-16, 1.250000000000000888, -0.3759999999999997788 ) ) ;
#84 = AXIS2_PLACEMENT_3D ( 'NONE', #22, #167, #131 ) ;
#85 = ORGANIZATION ( 'UNSPECIFIED', 'UNSPECIFIED', '' ) ;
#86 = APPROVAL_PERSON_ORGANIZATION ( #98, #74, #93 ) ;
#87 = DIRECTION ( 'NONE',  ( 1.000000000000000000, 1.224646799147353207E-16, 3.749275628560214164E-32 ) ) ;
#88 = DIRECTION ( 'NONE',  ( 0.0000000000000000000, 1.000000000000000000, 3.073328992872307707E-16 ) ) ;
#89 = APPLICATION_PROTOCOL_DEFINITION ( 'international standard', 'config_control_design', 1994, #129 ) ;
#90 = AXIS2_PLACEMENT_3D ( 'NONE', #68, #205, #50 ) ;
#91 = DIRECTION ( 'NONE',  ( 1.000000000000000000, 0.0000000000000000000, -0.0000000000000000000 ) ) ;
#92 = ORIENTED_EDGE ( 'NONE', *, *, #25, .F. ) ;
#93 = APPROVAL_ROLE ( '' ) ;
#94 = PRODUCT_DEFINITION ( 'UNKNOWN', '', #151, #115 ) ;
#95 = EDGE_LOOP ( 'NONE', ( #58, #148, #92 ) ) ;
#96 = PERSON_AND_ORGANIZATION_ROLE ( 'creator' ) ;
#97 = ORIENTED_EDGE ( 'NONE', *, *, #153, .F. ) ;
#98 = PERSON_AND_ORGANIZATION ( #208, #85 ) ;
#99 = CC_DESIGN_APPROVAL ( #243, ( #94 ) ) ;
#100 = VERTEX_POINT ( 'NONE', #199 ) ;
#101 = APPROVAL_DATE_TIME ( #174, #225 ) ;
#102 = EDGE_CURVE ( 'NONE', #207, #55, #66, .T. ) ;
#103 = DIRECTION ( 'NONE',  ( 0.0000000000000000000, 1.000000000000000000, 3.073328992872319047E-16 ) ) ;
#104 = ADVANCED_FACE ( 'NONE', ( #162 ), #73, .T. ) ;
#105 = ORIENTED_EDGE ( 'NONE', *, *, #121, .T. ) ;
#106 = EDGE_CURVE ( 'NONE', #116, #100, #136, .T. ) ;
#107 = LINE ( 'NONE', #236, #119 ) ;
#108 = DIRECTION ( 'NONE',  ( 0.0000000000000000000, 0.0000000000000000000, 1.000000000000000000 ) ) ;
#109 = CARTESIAN_POINT ( 'NONE',  ( 0.0000000000000000000, 1.716898108058973376E-16, -0.3760000000000001674 ) ) ;
#110 = EDGE_LOOP ( 'NONE', ( #97, #5, #20, #76 ) ) ;
#111 = EDGE_CURVE ( 'NONE', #55, #233, #220, .T. ) ;
#112 = DIRECTION ( 'NONE',  ( -0.0000000000000000000, 3.061515884555943639E-16, -1.000000000000000000 ) ) ;
#113 = CIRCLE ( 'NONE', #229, 1.250000000000000666 ) ;
#114 = SECURITY_CLASSIFICATION_LEVEL ( 'unclassified' ) ;
#115 = DESIGN_CONTEXT ( 'detailed design', #71, 'design' ) ;
#116 = VERTEX_POINT ( 'NONE', #80 ) ;
#117 = AXIS2_PLACEMENT_3D ( 'NONE', #60, #140, #19 ) ;
#118 = COORDINATED_UNIVERSAL_TIME_OFFSET ( 5, 0, .BEHIND. ) ;
#119 = VECTOR ( 'NONE', #190, 100.0000000000000142 ) ;
#120 = DIRECTION ( 'NONE',  ( 0.0000000000000000000, -3.061515884555947583E-16, 1.000000000000000000 ) ) ;
#121 = EDGE_CURVE ( 'NONE', #182, #100, #180, .T. ) ;
#122 = DIRECTION ( 'NONE',  ( 0.0000000000000000000, 0.0000000000000000000, 1.000000000000000000 ) ) ;
#123 = FACE_OUTER_BOUND ( 'NONE', #216, .T. ) ;
#124 = CALENDAR_DATE ( 2019, 16, 7 ) ;
#125 = DIRECTION ( 'NONE',  ( 0.0000000000000000000, 1.000000000000000000, 3.061515884555943639E-16 ) ) ;
#126 = PERSON_AND_ORGANIZATION_ROLE ( 'design_owner' ) ;
#127 = CIRCLE ( 'NONE', #38, 1.734999999999989662 ) ;
#128 = CONICAL_SURFACE ( 'NONE', #145, 1.250000000000000666, 0.7853981633974439491 ) ;
#129 = APPLICATION_CONTEXT ( 'configuration controlled 3d designs of mechanical parts and assemblies' ) ;
#130 = CARTESIAN_POINT ( 'NONE',  ( 0.0000000000000000000, 1.269999999999995355, -0.3560000000000052567 ) ) ;
#131 = DIRECTION ( 'NONE',  ( 0.0000000000000000000, 1.000000000000000000, 3.122502256758251291E-16 ) ) ;
#132 = ORIENTED_EDGE ( 'NONE', *, *, #111, .T. ) ;
#133 = COORDINATED_UNIVERSAL_TIME_OFFSET ( 5, 0, .BEHIND. ) ;
#134 = PRODUCT_DEFINITION_SHAPE ( 'NONE', 'NONE',  #94 ) ;
#135 = FACE_OUTER_BOUND ( 'NONE', #95, .T. ) ;
#136 = LINE ( 'NONE', #214, #228 ) ;
#137 = APPROVAL_STATUS ( 'not_yet_approved' ) ;
#138 = CIRCLE ( 'NONE', #84, 1.250000000000000666 ) ;
#139 = EDGE_CURVE ( 'NONE', #100, #233, #211, .T. ) ;
#140 = DIRECTION ( 'NONE',  ( -0.0000000000000000000, 3.061515884555943639E-16, -1.000000000000000000 ) ) ;
#141 = CARTESIAN_POINT ( 'NONE',  ( 0.0000000000000000000, 1.716898108058972882E-16, -0.3760000000000000009 ) ) ;
#142 = FACE_OUTER_BOUND ( 'NONE', #251, .T. ) ;
#143 = ADVANCED_FACE ( 'NONE', ( #56 ), #244, .T. ) ;
#144 = DIRECTION ( 'NONE',  ( 1.000000000000000000, 0.0000000000000000000, -0.0000000000000000000 ) ) ;
#145 = AXIS2_PLACEMENT_3D ( 'NONE', #187, #203, #44 ) ;
#146 = CARTESIAN_POINT ( 'NONE',  ( 0.0000000000000000000, 1.539330186754727283E-16, -1.358999999999976893 ) ) ;
#147 = DIRECTION ( 'NONE',  ( -0.0000000000000000000, 3.061515884555943639E-16, -1.000000000000000000 ) ) ;
#148 = ORIENTED_EDGE ( 'NONE', *, *, #102, .T. ) ;
#149 = LOCAL_TIME ( 7, 11, 6.000000000000000000, #186 ) ;
#150 = DIRECTION ( 'NONE',  ( 0.0000000000000000000, 1.000000000000000000, 3.122502256758251291E-16 ) ) ;
#151 = PRODUCT_DEFINITION_FORMATION_WITH_SPECIFIED_SOURCE ( 'ANY', '', #179, .NOT_KNOWN. ) ;
#152 = CARTESIAN_POINT ( 'NONE',  ( 0.0000000000000000000, 1.539330186754727283E-16, -1.358999999999976893 ) ) ;
#153 = EDGE_CURVE ( 'NONE', #13, #182, #138, .T. ) ;
#154 = APPLICATION_PROTOCOL_DEFINITION ( 'international standard', 'config_control_design', 1994, #71 ) ;
#155 = ORIENTED_EDGE ( 'NONE', *, *, #25, .T. ) ;
#156 = PERSON_AND_ORGANIZATION ( #208, #85 ) ;
#157 = APPROVAL_PERSON_ORGANIZATION ( #176, #225, #245 ) ;
#158 = ORIENTED_EDGE ( 'NONE', *, *, #106, .T. ) ;
#159 = ADVANCED_FACE ( 'NONE', ( #135 ), #77, .T. ) ;
#160 = EDGE_CURVE ( 'NONE', #233, #100, #177, .T. ) ;
#161 = DIRECTION ( 'NONE',  ( 0.0000000000000000000, -1.000000000000000000, -3.122502256758251291E-16 ) ) ;
#162 = FACE_OUTER_BOUND ( 'NONE', #82, .T. ) ;
#163 = DIRECTION ( 'NONE',  ( -0.0000000000000000000, 3.061515884555943639E-16, -1.000000000000000000 ) ) ;
#164 = AXIS2_PLACEMENT_3D ( 'NONE', #146, #144, #213 ) ;
#165 = DIRECTION ( 'NONE',  ( -0.0000000000000000000, 3.061515884555943639E-16, -1.000000000000000000 ) ) ;
#166 = PERSON_AND_ORGANIZATION ( #208, #85 ) ;
#167 = DIRECTION ( 'NONE',  ( -0.0000000000000000000, 3.061515884555943639E-16, -1.000000000000000000 ) ) ;
#168 = DIRECTION ( 'NONE',  ( 0.0000000000000000000, -3.061515884555947583E-16, 1.000000000000000000 ) ) ;
#169 = EDGE_CURVE ( 'NONE', #182, #13, #113, .T. ) ;
#170 = FACE_OUTER_BOUND ( 'NONE', #45, .T. ) ;
#171 = DIRECTION ( 'NONE',  ( 0.0000000000000000000, 1.000000000000000000, 3.073328992872307707E-16 ) ) ;
#172 =( NAMED_UNIT ( * ) PLANE_ANGLE_UNIT ( ) SI_UNIT ( $, .RADIAN. ) );
#173 = CC_DESIGN_SECURITY_CLASSIFICATION ( #28, ( #151 ) ) ;
#174 = DATE_AND_TIME ( #217, #70 ) ;
#175 = APPROVAL_ROLE ( '' ) ;
#176 = PERSON_AND_ORGANIZATION ( #208, #85 ) ;
#177 = CIRCLE ( 'NONE', #90, 1.269999999999995133 ) ;
#178 = ORIENTED_EDGE ( 'NONE', *, *, #160, .T. ) ;
#179 = PRODUCT ( '20131-E0W', '20131-E0W', '', ( #185 ) ) ;
#180 = LINE ( 'NONE', #204, #18 ) ;
#181 = CONICAL_SURFACE ( 'NONE', #226, 1.250000000000000666, 0.7853981633974439491 ) ;
#182 = VERTEX_POINT ( 'NONE', #9 ) ;
#183 = DATE_AND_TIME ( #124, #234 ) ;
#184 = CARTESIAN_POINT ( 'NONE',  ( 0.0000000000000000000, 1.655667790367871375E-16, -0.3560000000000056453 ) ) ;
#185 = MECHANICAL_CONTEXT ( 'NONE', #129, 'mechanical' ) ;
#186 = COORDINATED_UNIVERSAL_TIME_OFFSET ( 5, 0, .BEHIND. ) ;
#187 = CARTESIAN_POINT ( 'NONE',  ( 0.0000000000000000000, 1.716898108058973376E-16, -0.3760000000000001674 ) ) ;
#188 = PRODUCT_RELATED_PRODUCT_CATEGORY ( 'detail', '', ( #179 ) ) ;
#189 =( LENGTH_UNIT ( ) NAMED_UNIT ( * ) SI_UNIT ( .CENTI., .METRE. ) );
#190 = DIRECTION ( 'NONE',  ( 8.659560562354894648E-17, 0.7071067811865443531, 0.7071067811865506814 ) ) ;
#191 = ORIENTED_EDGE ( 'NONE', *, *, #169, .T. ) ;
#192 = ORIENTED_EDGE ( 'NONE', *, *, #237, .F. ) ;
#193 = CALENDAR_DATE ( 2019, 16, 7 ) ;
#194 = CYLINDRICAL_SURFACE ( 'NONE', #250, 1.269999999999995133 ) ;
#195 = CC_DESIGN_PERSON_AND_ORGANIZATION_ASSIGNMENT ( #17, #11, ( #94 ) ) ;
#196 = CLOSED_SHELL ( 'NONE', ( #81, #6, #104, #16, #159, #143, #198 ) ) ;
#197 = VECTOR ( 'NONE', #65, 100.0000000000000000 ) ;
#198 = ADVANCED_FACE ( 'NONE', ( #170 ), #128, .T. ) ;
#199 = CARTESIAN_POINT ( 'NONE',  ( 1.555301434917132664E-16, -1.269999999999994911, -0.3560000000000060338 ) ) ;
#200 = APPROVAL_DATE_TIME ( #249, #74 ) ;
#201 = ORIENTED_EDGE ( 'NONE', *, *, #102, .F. ) ;
#202 = SHAPE_DEFINITION_REPRESENTATION ( #134, #67 ) ;
#203 = DIRECTION ( 'NONE',  ( 0.0000000000000000000, -3.061515884555947583E-16, 1.000000000000000000 ) ) ;
#204 = CARTESIAN_POINT ( 'NONE',  ( 0.0000000000000000000, -1.250000000000000666, -0.3760000000000005560 ) ) ;
#205 = DIRECTION ( 'NONE',  ( 0.0000000000000000000, -3.061515884555947583E-16, 1.000000000000000000 ) ) ;
#206 = ORIENTED_EDGE ( 'NONE', *, *, #160, .F. ) ;
#207 = VERTEX_POINT ( 'NONE', #222 ) ;
#208 = PERSON ( 'UNSPECIFIED', 'UNSPECIFIED', 'UNSPECIFIED', ('UNSPECIFIED'), ('UNSPECIFIED'), ('UNSPECIFIED') ) ;
#209 = ORIENTED_EDGE ( 'NONE', *, *, #169, .F. ) ;
#210 = EDGE_CURVE ( 'NONE', #207, #116, #127, .T. ) ;
#211 = CIRCLE ( 'NONE', #32, 1.269999999999995133 ) ;
#212 = DIRECTION ( 'NONE',  ( -0.0000000000000000000, 3.061515884555943639E-16, -1.000000000000000000 ) ) ;
#213 = DIRECTION ( 'NONE',  ( 0.0000000000000000000, 1.000000000000000000, 2.999521860478646715E-16 ) ) ;
#214 = CARTESIAN_POINT ( 'NONE',  ( 1.555301434917132664E-16, -1.269999999999994911, -0.3760000000000003895 ) ) ;
#215 = MANIFOLD_SOLID_BREP ( '20131-001-1-solid1', #196 ) ;
#216 = EDGE_LOOP ( 'NONE', ( #69, #158, #224, #223 ) ) ;
#217 = CALENDAR_DATE ( 2019, 16, 7 ) ;
#218 =( NAMED_UNIT ( * ) SI_UNIT ( $, .STERADIAN. ) SOLID_ANGLE_UNIT ( ) );
#219 = LOCAL_TIME ( 7, 11, 6.000000000000000000, #14 ) ;
#220 = LINE ( 'NONE', #10, #197 ) ;
#221 = DIRECTION ( 'NONE',  ( 0.0000000000000000000, -0.7071067811865447972, 0.7071067811865502373 ) ) ;
#222 = CARTESIAN_POINT ( 'NONE',  ( 0.0000000000000000000, -2.710018774689480415E-16, 0.3760000000000127685 ) ) ;
#223 = ORIENTED_EDGE ( 'NONE', *, *, #111, .F. ) ;
#224 = ORIENTED_EDGE ( 'NONE', *, *, #139, .T. ) ;
#225 = APPROVAL ( #137, 'UNSPECIFIED' ) ;
#226 = AXIS2_PLACEMENT_3D ( 'NONE', #41, #120, #161 ) ;
#227 = CALENDAR_DATE ( 2019, 16, 7 ) ;
#228 = VECTOR ( 'NONE', #165, 100.0000000000000000 ) ;
#229 = AXIS2_PLACEMENT_3D ( 'NONE', #109, #7, #150 ) ;
#230 = CARTESIAN_POINT ( 'NONE',  ( 0.0000000000000000000, 1.269999999999990692, -0.1769149776771369587 ) ) ;
#231 = ORIENTED_EDGE ( 'NONE', *, *, #39, .F. ) ;
#232 = CARTESIAN_POINT ( 'NONE',  ( 0.0000000000000000000, 1.539330186754727283E-16, -1.358999999999976893 ) ) ;
#233 = VERTEX_POINT ( 'NONE', #130 ) ;
#234 = LOCAL_TIME ( 7, 11, 6.000000000000000000, #21 ) ;
#235 = DIRECTION ( 'NONE',  ( 1.000000000000000000, 0.0000000000000000000, 0.0000000000000000000 ) ) ;
#236 = CARTESIAN_POINT ( 'NONE',  ( 1.530808498934192064E-16, 1.250000000000000888, -0.3759999999999997788 ) ) ;
#237 = EDGE_CURVE ( 'NONE', #13, #233, #107, .T. ) ;
#238 = DIRECTION ( 'NONE',  ( 0.0000000000000000000, 1.000000000000000000, 2.999521860478646715E-16 ) ) ;
#239 = CIRCLE ( 'NONE', #62, 1.269999999999990470 ) ;
#240 = CALENDAR_DATE ( 2019, 16, 7 ) ;
#241 = DATE_TIME_ROLE ( 'creation_date' ) ;
#242 = DATE_TIME_ROLE ( 'classification_date' ) ;
#243 = APPROVAL ( #27, 'UNSPECIFIED' ) ;
#244 = CYLINDRICAL_SURFACE ( 'NONE', #34, 1.269999999999995133 ) ;
#245 = APPROVAL_ROLE ( '' ) ;
#246 = AXIS2_PLACEMENT_3D ( 'NONE', #232, #59, #122 ) ;
#247 = CC_DESIGN_PERSON_AND_ORGANIZATION_ASSIGNMENT ( #46, #96, ( #151 ) ) ;
#248 = FACE_OUTER_BOUND ( 'NONE', #110, .T. ) ;
#249 = DATE_AND_TIME ( #240, #8 ) ;
#250 = AXIS2_PLACEMENT_3D ( 'NONE', #141, #147, #61 ) ;
#251 = EDGE_LOOP ( 'NONE', ( #191, #52 ) ) ;
ENDSEC;
END-ISO-10303-21;
