ISO-10303-21;
HEADER;
FILE_DESCRIPTION (( 'STEP AP203' ),
    '1' );
FILE_NAME ('37975_37975.step',
    '2018-03-27T18:22:48',
    ( '' ),
    ( '' ),
    'SwSTEP 2.0',
    'SolidWorks 2016',
    '' );
FILE_SCHEMA (( 'CONFIG_CONTROL_DESIGN' ));
ENDSEC;

DATA;
#1 = DATE_AND_TIME ( #130, #65 ) ;
#2 = ORGANIZATION ( 'UNSPECIFIED', 'UNSPECIFIED', '' ) ;
#3 = EDGE_CURVE ( 'NONE', #50, #84, #90, .T. ) ;
#4 = DATE_TIME_ROLE ( 'creation_date' ) ;
#5 = PERSON_AND_ORGANIZATION_ROLE ( 'design_supplier' ) ;
#6 = VERTEX_POINT ( 'NONE', #142 ) ;
#7 = EDGE_CURVE ( 'NONE', #6, #84, #136, .T. ) ;
#8 = APPROVAL ( #25, 'UNSPECIFIED' ) ;
#9 = FACE_OUTER_BOUND ( 'NONE', #147, .T. ) ;
#10 = DIRECTION ( 'NONE',  ( 1.000000000000000000, 0.0000000000000000000, -0.0000000000000000000 ) ) ;
#11 = PLANE ( 'NONE',  #127 ) ;
#12 = ORIENTED_EDGE ( 'NONE', *, *, #92, .F. ) ;
#13 = CALENDAR_DATE ( 2018, 27, 3 ) ;
#14 = PERSON_AND_ORGANIZATION_ROLE ( 'design_owner' ) ;
#15 = PERSON_AND_ORGANIZATION_ROLE ( 'creator' ) ;
#16 = CC_DESIGN_PERSON_AND_ORGANIZATION_ASSIGNMENT ( #163, #15, ( #174 ) ) ;
#17 = SHAPE_DEFINITION_REPRESENTATION ( #19, #110 ) ;
#18 = DATE_AND_TIME ( #126, #97 ) ;
#19 = PRODUCT_DEFINITION_SHAPE ( 'NONE', 'NONE',  #123 ) ;
#20 = AXIS2_PLACEMENT_3D ( 'NONE', #49, #34, #10 ) ;
#21 = CARTESIAN_POINT ( 'NONE',  ( 0.0000000000000000000, 0.0000000000000000000, 0.6250000000000000000 ) ) ;
#22 = COORDINATED_UNIVERSAL_TIME_OFFSET ( 5, 0, .BEHIND. ) ;
#23 = PERSON_AND_ORGANIZATION_ROLE ( 'classification_officer' ) ;
#24 = ADVANCED_FACE ( 'NONE', ( #148 ), #146, .T. ) ;
#25 = APPROVAL_STATUS ( 'not_yet_approved' ) ;
#26 = APPROVAL_STATUS ( 'not_yet_approved' ) ;
#27 = DATE_AND_TIME ( #13, #131 ) ;
#28 = COORDINATED_UNIVERSAL_TIME_OFFSET ( 5, 0, .BEHIND. ) ;
#29 = CARTESIAN_POINT ( 'NONE',  ( 7.500000000000000000, 9.184850993605147900E-016, 0.6250000000000000000 ) ) ;
#30 = ORIENTED_EDGE ( 'NONE', *, *, #82, .T. ) ;
#31 =( GEOMETRIC_REPRESENTATION_CONTEXT ( 3 ) GLOBAL_UNCERTAINTY_ASSIGNED_CONTEXT ( ( #56 ) ) GLOBAL_UNIT_ASSIGNED_CONTEXT ( ( #172, #156, #77 ) ) REPRESENTATION_CONTEXT ( 'NONE', 'WORKASPACE' ) );
#32 = DIRECTION ( 'NONE',  ( 0.0000000000000000000, 0.0000000000000000000, 1.000000000000000000 ) ) ;
#33 = DIRECTION ( 'NONE',  ( -1.000000000000000000, 0.0000000000000000000, 0.0000000000000000000 ) ) ;
#34 = DIRECTION ( 'NONE',  ( 0.0000000000000000000, 0.0000000000000000000, 1.000000000000000000 ) ) ;
#35 = DATE_TIME_ROLE ( 'classification_date' ) ;
#36 = APPROVAL_DATE_TIME ( #1, #44 ) ;
#37 = VERTEX_POINT ( 'NONE', #41 ) ;
#38 = CC_DESIGN_PERSON_AND_ORGANIZATION_ASSIGNMENT ( #124, #5, ( #174 ) ) ;
#39 = CC_DESIGN_PERSON_AND_ORGANIZATION_ASSIGNMENT ( #93, #23, ( #85 ) ) ;
#40 = APPROVAL_DATE_TIME ( #27, #134 ) ;
#41 = CARTESIAN_POINT ( 'NONE',  ( -7.500000000000000000, 0.0000000000000000000, 0.6250000000000000000 ) ) ;
#42 = FACE_OUTER_BOUND ( 'NONE', #76, .T. ) ;
#43 = CLOSED_SHELL ( 'NONE', ( #91, #24, #143, #47 ) ) ;
#44 = APPROVAL ( #132, 'UNSPECIFIED' ) ;
#45 = DIRECTION ( 'NONE',  ( 1.000000000000000000, 0.0000000000000000000, 0.0000000000000000000 ) ) ;
#46 = AXIS2_PLACEMENT_3D ( 'NONE', #64, #73, #141 ) ;
#47 = ADVANCED_FACE ( 'NONE', ( #42 ), #169, .F. ) ;
#48 = DIRECTION ( 'NONE',  ( 0.0000000000000000000, 0.0000000000000000000, 1.000000000000000000 ) ) ;
#49 = CARTESIAN_POINT ( 'NONE',  ( 0.0000000000000000000, 0.0000000000000000000, -0.6250000000000000000 ) ) ;
#50 = VERTEX_POINT ( 'NONE', #106 ) ;
#51 = SECURITY_CLASSIFICATION_LEVEL ( 'unclassified' ) ;
#52 = COORDINATED_UNIVERSAL_TIME_OFFSET ( 5, 0, .BEHIND. ) ;
#53 = CC_DESIGN_DATE_AND_TIME_ASSIGNMENT ( #18, #35, ( #85 ) ) ;
#54 = APPLICATION_CONTEXT ( 'configuration controlled 3d designs of mechanical parts and assemblies' ) ;
#55 = CALENDAR_DATE ( 2018, 27, 3 ) ;
#56 = UNCERTAINTY_MEASURE_WITH_UNIT (LENGTH_MEASURE( 1.000000000000000100E-005 ), #172, 'distance_accuracy_value', 'NONE');
#57 = LOCAL_TIME ( 14, 22, 48.00000000000000000, #120 ) ;
#58 = CC_DESIGN_APPROVAL ( #44, ( #85 ) ) ;
#59 = DATE_AND_TIME ( #55, #170 ) ;
#60 = CC_DESIGN_APPROVAL ( #8, ( #174 ) ) ;
#61 = DIRECTION ( 'NONE',  ( 0.0000000000000000000, 0.0000000000000000000, 1.000000000000000000 ) ) ;
#62 = APPROVAL_DATE_TIME ( #59, #8 ) ;
#63 = CARTESIAN_POINT ( 'NONE',  ( 0.0000000000000000000, 0.0000000000000000000, 0.0000000000000000000 ) ) ;
#64 = CARTESIAN_POINT ( 'NONE',  ( 0.0000000000000000000, 0.0000000000000000000, 0.6250000000000000000 ) ) ;
#65 = LOCAL_TIME ( 14, 22, 48.00000000000000000, #22 ) ;
#66 = CALENDAR_DATE ( 2018, 27, 3 ) ;
#67 = ORIENTED_EDGE ( 'NONE', *, *, #155, .F. ) ;
#68 = DIRECTION ( 'NONE',  ( 1.000000000000000000, 0.0000000000000000000, 0.0000000000000000000 ) ) ;
#69 = ORIENTED_EDGE ( 'NONE', *, *, #92, .T. ) ;
#70 = AXIS2_PLACEMENT_3D ( 'NONE', #75, #137, #109 ) ;
#71 = AXIS2_PLACEMENT_3D ( 'NONE', #101, #32, #45 ) ;
#72 = CIRCLE ( 'NONE', #71, 7.500000000000000000 ) ;
#73 = DIRECTION ( 'NONE',  ( 0.0000000000000000000, 0.0000000000000000000, 1.000000000000000000 ) ) ;
#74 = CC_DESIGN_SECURITY_CLASSIFICATION ( #85, ( #174 ) ) ;
#75 = CARTESIAN_POINT ( 'NONE',  ( 0.0000000000000000000, 0.0000000000000000000, 0.6250000000000000000 ) ) ;
#76 = EDGE_LOOP ( 'NONE', ( #116, #119 ) ) ;
#77 =( NAMED_UNIT ( * ) SI_UNIT ( $, .STERADIAN. ) SOLID_ANGLE_UNIT ( ) );
#78 = DIRECTION ( 'NONE',  ( 1.000000000000000000, 0.0000000000000000000, 0.0000000000000000000 ) ) ;
#79 = DESIGN_CONTEXT ( 'detailed design', #54, 'design' ) ;
#80 = EDGE_LOOP ( 'NONE', ( #67, #149, #121, #154 ) ) ;
#81 = ORIENTED_EDGE ( 'NONE', *, *, #7, .T. ) ;
#82 = EDGE_CURVE ( 'NONE', #37, #6, #83, .T. ) ;
#83 = LINE ( 'NONE', #88, #107 ) ;
#84 = VERTEX_POINT ( 'NONE', #99 ) ;
#85 = SECURITY_CLASSIFICATION ( '', '', #51 ) ;
#86 = APPROVAL_PERSON_ORGANIZATION ( #94, #44, #129 ) ;
#87 = AXIS2_PLACEMENT_3D ( 'NONE', #171, #128, #78 ) ;
#88 = CARTESIAN_POINT ( 'NONE',  ( -7.500000000000000000, 0.0000000000000000000, 0.6250000000000000000 ) ) ;
#89 = DIRECTION ( 'NONE',  ( -0.0000000000000000000, -0.0000000000000000000, -1.000000000000000000 ) ) ;
#90 = LINE ( 'NONE', #29, #158 ) ;
#91 = ADVANCED_FACE ( 'NONE', ( #100 ), #159, .T. ) ;
#92 = EDGE_CURVE ( 'NONE', #37, #50, #138, .T. ) ;
#93 = PERSON_AND_ORGANIZATION ( #114, #2 ) ;
#94 = PERSON_AND_ORGANIZATION ( #114, #2 ) ;
#95 = AXIS2_PLACEMENT_3D ( 'NONE', #139, #61, #108 ) ;
#96 = PERSON_AND_ORGANIZATION ( #114, #2 ) ;
#97 = LOCAL_TIME ( 14, 22, 48.00000000000000000, #52 ) ;
#98 = PERSON_AND_ORGANIZATION ( #114, #2 ) ;
#99 = CARTESIAN_POINT ( 'NONE',  ( 7.500000000000000000, 9.184850993605147900E-016, -0.6250000000000000000 ) ) ;
#100 = FACE_OUTER_BOUND ( 'NONE', #80, .T. ) ;
#101 = CARTESIAN_POINT ( 'NONE',  ( 0.0000000000000000000, 0.0000000000000000000, 0.6250000000000000000 ) ) ;
#102 = PERSON_AND_ORGANIZATION_ROLE ( 'creator' ) ;
#103 = CIRCLE ( 'NONE', #87, 7.500000000000000000 ) ;
#104 = CC_DESIGN_PERSON_AND_ORGANIZATION_ASSIGNMENT ( #153, #14, ( #140 ) ) ;
#105 = EDGE_LOOP ( 'NONE', ( #112, #12, #30, #81 ) ) ;
#106 = CARTESIAN_POINT ( 'NONE',  ( 7.500000000000000000, 9.184850993605147900E-016, 0.6250000000000000000 ) ) ;
#107 = VECTOR ( 'NONE', #89, 1000.000000000000000 ) ;
#108 = DIRECTION ( 'NONE',  ( 1.000000000000000000, 0.0000000000000000000, 0.0000000000000000000 ) ) ;
#109 = DIRECTION ( 'NONE',  ( -1.000000000000000000, 0.0000000000000000000, 0.0000000000000000000 ) ) ;
#110 = ADVANCED_BREP_SHAPE_REPRESENTATION ( '37975_37975', ( #157, #113 ), #31 ) ;
#111 = DIRECTION ( 'NONE',  ( 0.0000000000000000000, 0.0000000000000000000, 1.000000000000000000 ) ) ;
#112 = ORIENTED_EDGE ( 'NONE', *, *, #3, .F. ) ;
#113 = AXIS2_PLACEMENT_3D ( 'NONE', #63, #111, #68 ) ;
#114 = PERSON ( 'UNSPECIFIED', 'UNSPECIFIED', 'UNSPECIFIED', ('UNSPECIFIED'), ('UNSPECIFIED'), ('UNSPECIFIED') ) ;
#115 = APPROVAL_ROLE ( '' ) ;
#116 = ORIENTED_EDGE ( 'NONE', *, *, #7, .F. ) ;
#117 = AXIS2_PLACEMENT_3D ( 'NONE', #21, #166, #33 ) ;
#118 = PERSON_AND_ORGANIZATION ( #114, #2 ) ;
#119 = ORIENTED_EDGE ( 'NONE', *, *, #168, .F. ) ;
#120 = COORDINATED_UNIVERSAL_TIME_OFFSET ( 5, 0, .BEHIND. ) ;
#121 = ORIENTED_EDGE ( 'NONE', *, *, #168, .T. ) ;
#122 = DIRECTION ( 'NONE',  ( -0.0000000000000000000, -0.0000000000000000000, -1.000000000000000000 ) ) ;
#123 = PRODUCT_DEFINITION ( 'UNKNOWN', '', #174, #79 ) ;
#124 = PERSON_AND_ORGANIZATION ( #114, #2 ) ;
#125 = DIRECTION ( 'NONE',  ( 1.000000000000000000, 0.0000000000000000000, -0.0000000000000000000 ) ) ;
#126 = CALENDAR_DATE ( 2018, 27, 3 ) ;
#127 = AXIS2_PLACEMENT_3D ( 'NONE', #167, #48, #125 ) ;
#128 = DIRECTION ( 'NONE',  ( 0.0000000000000000000, 0.0000000000000000000, 1.000000000000000000 ) ) ;
#129 = APPROVAL_ROLE ( '' ) ;
#130 = CALENDAR_DATE ( 2018, 27, 3 ) ;
#131 = LOCAL_TIME ( 14, 22, 48.00000000000000000, #135 ) ;
#132 = APPROVAL_STATUS ( 'not_yet_approved' ) ;
#133 = APPROVAL_ROLE ( '' ) ;
#134 = APPROVAL ( #26, 'UNSPECIFIED' ) ;
#135 = COORDINATED_UNIVERSAL_TIME_OFFSET ( 5, 0, .BEHIND. ) ;
#136 = CIRCLE ( 'NONE', #95, 7.500000000000000000 ) ;
#137 = DIRECTION ( 'NONE',  ( -0.0000000000000000000, -0.0000000000000000000, -1.000000000000000000 ) ) ;
#138 = CIRCLE ( 'NONE', #46, 7.500000000000000000 ) ;
#139 = CARTESIAN_POINT ( 'NONE',  ( 0.0000000000000000000, 0.0000000000000000000, -0.6250000000000000000 ) ) ;
#140 = PRODUCT ( '37975_37975', '37975_37975', '', ( #175 ) ) ;
#141 = DIRECTION ( 'NONE',  ( 1.000000000000000000, 0.0000000000000000000, 0.0000000000000000000 ) ) ;
#142 = CARTESIAN_POINT ( 'NONE',  ( -7.500000000000000000, 0.0000000000000000000, -0.6250000000000000000 ) ) ;
#143 = ADVANCED_FACE ( 'NONE', ( #9 ), #11, .T. ) ;
#144 = CC_DESIGN_APPROVAL ( #134, ( #123 ) ) ;
#145 = APPLICATION_PROTOCOL_DEFINITION ( 'international standard', 'config_control_design', 1994, #161 ) ;
#146 = CYLINDRICAL_SURFACE ( 'NONE', #70, 7.500000000000000000 ) ;
#147 = EDGE_LOOP ( 'NONE', ( #69, #173 ) ) ;
#148 = FACE_OUTER_BOUND ( 'NONE', #105, .T. ) ;
#149 = ORIENTED_EDGE ( 'NONE', *, *, #3, .T. ) ;
#150 = CC_DESIGN_PERSON_AND_ORGANIZATION_ASSIGNMENT ( #98, #102, ( #123 ) ) ;
#151 = APPROVAL_PERSON_ORGANIZATION ( #118, #134, #133 ) ;
#152 = PRODUCT_RELATED_PRODUCT_CATEGORY ( 'detail', '', ( #140 ) ) ;
#153 = PERSON_AND_ORGANIZATION ( #114, #2 ) ;
#154 = ORIENTED_EDGE ( 'NONE', *, *, #82, .F. ) ;
#155 = EDGE_CURVE ( 'NONE', #50, #37, #72, .T. ) ;
#156 =( NAMED_UNIT ( * ) PLANE_ANGLE_UNIT ( ) SI_UNIT ( $, .RADIAN. ) );
#157 = MANIFOLD_SOLID_BREP ( 'Boss-Extrude1', #43 ) ;
#158 = VECTOR ( 'NONE', #122, 1000.000000000000000 ) ;
#159 = CYLINDRICAL_SURFACE ( 'NONE', #117, 7.500000000000000000 ) ;
#160 = APPLICATION_PROTOCOL_DEFINITION ( 'international standard', 'config_control_design', 1994, #54 ) ;
#161 = APPLICATION_CONTEXT ( 'configuration controlled 3d designs of mechanical parts and assemblies' ) ;
#162 = CC_DESIGN_DATE_AND_TIME_ASSIGNMENT ( #165, #4, ( #123 ) ) ;
#163 = PERSON_AND_ORGANIZATION ( #114, #2 ) ;
#164 = APPROVAL_PERSON_ORGANIZATION ( #96, #8, #115 ) ;
#165 = DATE_AND_TIME ( #66, #57 ) ;
#166 = DIRECTION ( 'NONE',  ( -0.0000000000000000000, -0.0000000000000000000, -1.000000000000000000 ) ) ;
#167 = CARTESIAN_POINT ( 'NONE',  ( 0.0000000000000000000, 0.0000000000000000000, 0.6250000000000000000 ) ) ;
#168 = EDGE_CURVE ( 'NONE', #84, #6, #103, .T. ) ;
#169 = PLANE ( 'NONE',  #20 ) ;
#170 = LOCAL_TIME ( 14, 22, 48.00000000000000000, #28 ) ;
#171 = CARTESIAN_POINT ( 'NONE',  ( 0.0000000000000000000, 0.0000000000000000000, -0.6250000000000000000 ) ) ;
#172 =( LENGTH_UNIT ( ) NAMED_UNIT ( * ) SI_UNIT ( .MILLI., .METRE. ) );
#173 = ORIENTED_EDGE ( 'NONE', *, *, #155, .T. ) ;
#174 = PRODUCT_DEFINITION_FORMATION_WITH_SPECIFIED_SOURCE ( 'ANY', '', #140, .NOT_KNOWN. ) ;
#175 = MECHANICAL_CONTEXT ( 'NONE', #161, 'mechanical' ) ;
ENDSEC;
END-ISO-10303-21;
