ISO-10303-21;
HEADER;
FILE_DESCRIPTION (( 'STEP AP203' ),
    '1' );
FILE_NAME ('Web Model 11875_22459.step',
    '2022-06-07T18:31:36',
    ( 'WC' ),
    ( 'Windows Central' ),
    'SwSTEP 2.0',
    'SolidWorks 2021',
    '' );
FILE_SCHEMA (( 'CONFIG_CONTROL_DESIGN' ));
ENDSEC;

DATA;
#1 = ADVANCED_FACE ( 'NONE', ( #100 ), #30, .T. ) ;
#2 = ORIENTED_EDGE ( 'NONE', *, *, #52, .F. ) ;
#3 = CIRCLE ( 'NONE', #158, 25.00000000000000000 ) ;
#4 =( NAMED_UNIT ( * ) PLANE_ANGLE_UNIT ( ) SI_UNIT ( $, .RADIAN. ) );
#5 = CARTESIAN_POINT ( 'NONE',  ( 0.000000000000000000, 0.000000000000000000, 0.5000000000000000000 ) ) ;
#6 = CLOSED_SHELL ( 'NONE', ( #20, #22, #1, #126 ) ) ;
#7 = DIRECTION ( 'NONE',  ( -1.000000000000000000, 0.000000000000000000, 0.000000000000000000 ) ) ;
#8 = AXIS2_PLACEMENT_3D ( 'NONE', #152, #155, #112 ) ;
#9 = DATE_AND_TIME ( #23, #140 ) ;
#10 = MECHANICAL_CONTEXT ( 'NONE', #167, 'mechanical' ) ;
#11 = APPLICATION_PROTOCOL_DEFINITION ( 'international standard', 'config_control_design', 1994, #159 ) ;
#12 = CIRCLE ( 'NONE', #162, 25.00000000000000000 ) ;
#13 = ORIENTED_EDGE ( 'NONE', *, *, #83, .F. ) ;
#14 = AXIS2_PLACEMENT_3D ( 'NONE', #86, #73, #7 ) ;
#15 = DIRECTION ( 'NONE',  ( 0.000000000000000000, 0.000000000000000000, 1.000000000000000000 ) ) ;
#16 = DIRECTION ( 'NONE',  ( 0.000000000000000000, 0.000000000000000000, 1.000000000000000000 ) ) ;
#17 = PLANE ( 'NONE',  #101 ) ;
#18 = DATE_TIME_ROLE ( 'creation_date' ) ;
#19 = COORDINATED_UNIVERSAL_TIME_OFFSET ( 5, 0, .BEHIND. ) ;
#20 = ADVANCED_FACE ( 'NONE', ( #72 ), #141, .T. ) ;
#21 = COORDINATED_UNIVERSAL_TIME_OFFSET ( 5, 0, .BEHIND. ) ;
#22 = ADVANCED_FACE ( 'NONE', ( #151 ), #99, .T. ) ;
#23 = CALENDAR_DATE ( 2022, 7, 6 ) ;
#24 = VERTEX_POINT ( 'NONE', #142 ) ;
#25 = CIRCLE ( 'NONE', #56, 25.00000000000000000 ) ;
#26 = EDGE_LOOP ( 'NONE', ( #163, #79 ) ) ;
#27 = DIRECTION ( 'NONE',  ( -0.000000000000000000, -0.000000000000000000, -1.000000000000000000 ) ) ;
#28 = CIRCLE ( 'NONE', #69, 25.00000000000000000 ) ;
#29 =( LENGTH_UNIT ( ) NAMED_UNIT ( * ) SI_UNIT ( .MILLI., .METRE. ) );
#30 = PLANE ( 'NONE',  #8 ) ;
#31 = CARTESIAN_POINT ( 'NONE',  ( 25.00000000000000000, 3.061616997868383043E-15, 0.5000000000000000000 ) ) ;
#32 = DIRECTION ( 'NONE',  ( -0.000000000000000000, -0.000000000000000000, -1.000000000000000000 ) ) ;
#33 = APPROVAL_STATUS ( 'not_yet_approved' ) ;
#34 = PERSON_AND_ORGANIZATION_ROLE ( 'creator' ) ;
#35 = VECTOR ( 'NONE', #32, 1000.000000000000000 ) ;
#36 = EDGE_CURVE ( 'NONE', #161, #110, #3, .T. ) ;
#37 = AXIS2_PLACEMENT_3D ( 'NONE', #96, #85, #147 ) ;
#38 = EDGE_LOOP ( 'NONE', ( #82, #153 ) ) ;
#39 = CARTESIAN_POINT ( 'NONE',  ( -25.00000000000000000, 0.000000000000000000, 0.5000000000000000000 ) ) ;
#40 = EDGE_CURVE ( 'NONE', #149, #24, #28, .T. ) ;
#41 = CARTESIAN_POINT ( 'NONE',  ( -25.00000000000000000, 0.000000000000000000, -0.5000000000000000000 ) ) ;
#42 = DIRECTION ( 'NONE',  ( -0.000000000000000000, -0.000000000000000000, -1.000000000000000000 ) ) ;
#43 = AXIS2_PLACEMENT_3D ( 'NONE', #5, #27, #88 ) ;
#44 = APPROVAL_ROLE ( '' ) ;
#45 = EDGE_CURVE ( 'NONE', #24, #149, #25, .T. ) ;
#46 = APPROVAL_STATUS ( 'not_yet_approved' ) ;
#47 = DATE_AND_TIME ( #132, #58 ) ;
#48 = SECURITY_CLASSIFICATION_LEVEL ( 'unclassified' ) ;
#49 = PRODUCT_DEFINITION_SHAPE ( 'NONE', 'NONE',  #175 ) ;
#50 = SHAPE_DEFINITION_REPRESENTATION ( #49, #92 ) ;
#51 = CC_DESIGN_SECURITY_CLASSIFICATION ( #67, ( #119 ) ) ;
#52 = EDGE_CURVE ( 'NONE', #110, #161, #12, .T. ) ;
#53 = CC_DESIGN_DATE_AND_TIME_ASSIGNMENT ( #118, #171, ( #67 ) ) ;
#54 =( NAMED_UNIT ( * ) SI_UNIT ( $, .STERADIAN. ) SOLID_ANGLE_UNIT ( ) );
#55 = CARTESIAN_POINT ( 'NONE',  ( 0.000000000000000000, 0.000000000000000000, -0.5000000000000000000 ) ) ;
#56 = AXIS2_PLACEMENT_3D ( 'NONE', #55, #16, #84 ) ;
#57 = LINE ( 'NONE', #31, #113 ) ;
#58 = LOCAL_TIME ( 14, 31, 36.00000000000000000, #77 ) ;
#59 = PERSON_AND_ORGANIZATION ( #80, #150 ) ;
#60 = PERSON_AND_ORGANIZATION ( #80, #150 ) ;
#61 = PERSON_AND_ORGANIZATION_ROLE ( 'creator' ) ;
#62 = PRODUCT_RELATED_PRODUCT_CATEGORY ( 'detail', '', ( #91 ) ) ;
#63 = CALENDAR_DATE ( 2022, 7, 6 ) ;
#64 = LOCAL_TIME ( 14, 31, 36.00000000000000000, #133 ) ;
#65 = PERSON_AND_ORGANIZATION ( #80, #150 ) ;
#66 = ORIENTED_EDGE ( 'NONE', *, *, #45, .T. ) ;
#67 = SECURITY_CLASSIFICATION ( '', '', #48 ) ;
#68 = ORIENTED_EDGE ( 'NONE', *, *, #36, .F. ) ;
#69 = AXIS2_PLACEMENT_3D ( 'NONE', #143, #165, #139 ) ;
#70 = DIRECTION ( 'NONE',  ( 1.000000000000000000, 0.000000000000000000, 0.000000000000000000 ) ) ;
#71 = APPROVAL ( #120, 'UNSPECIFIED' ) ;
#72 = FACE_OUTER_BOUND ( 'NONE', #137, .T. ) ;
#73 = DIRECTION ( 'NONE',  ( -0.000000000000000000, -0.000000000000000000, -1.000000000000000000 ) ) ;
#74 = DIRECTION ( 'NONE',  ( 1.000000000000000000, 0.000000000000000000, 0.000000000000000000 ) ) ;
#75 = APPROVAL_DATE_TIME ( #131, #160 ) ;
#76 = CALENDAR_DATE ( 2022, 7, 6 ) ;
#77 = COORDINATED_UNIVERSAL_TIME_OFFSET ( 5, 0, .BEHIND. ) ;
#78 = APPROVAL_ROLE ( '' ) ;
#79 = ORIENTED_EDGE ( 'NONE', *, *, #45, .F. ) ;
#80 = PERSON ( 'UNSPECIFIED', 'UNSPECIFIED', 'UNSPECIFIED', ('UNSPECIFIED'), ('UNSPECIFIED'), ('UNSPECIFIED') ) ;
#81 = CC_DESIGN_APPROVAL ( #71, ( #67 ) ) ;
#82 = ORIENTED_EDGE ( 'NONE', *, *, #52, .T. ) ;
#83 = EDGE_CURVE ( 'NONE', #110, #149, #125, .T. ) ;
#84 = DIRECTION ( 'NONE',  ( 1.000000000000000000, 0.000000000000000000, 0.000000000000000000 ) ) ;
#85 = DIRECTION ( 'NONE',  ( 0.000000000000000000, 0.000000000000000000, 1.000000000000000000 ) ) ;
#86 = CARTESIAN_POINT ( 'NONE',  ( 0.000000000000000000, 0.000000000000000000, 0.5000000000000000000 ) ) ;
#87 = CC_DESIGN_PERSON_AND_ORGANIZATION_ASSIGNMENT ( #59, #145, ( #67 ) ) ;
#88 = DIRECTION ( 'NONE',  ( -1.000000000000000000, 0.000000000000000000, 0.000000000000000000 ) ) ;
#89 = PERSON_AND_ORGANIZATION ( #80, #150 ) ;
#90 = CALENDAR_DATE ( 2022, 7, 6 ) ;
#91 = PRODUCT ( 'Web Model 11875_22459', 'Web Model 11875_22459', '', ( #10 ) ) ;
#92 = ADVANCED_BREP_SHAPE_REPRESENTATION ( 'Web Model 11875_22459', ( #98, #37 ), #105 ) ;
#93 = ORIENTED_EDGE ( 'NONE', *, *, #117, .T. ) ;
#94 = ORIENTED_EDGE ( 'NONE', *, *, #117, .F. ) ;
#95 = CARTESIAN_POINT ( 'NONE',  ( 0.000000000000000000, 0.000000000000000000, 0.5000000000000000000 ) ) ;
#96 = CARTESIAN_POINT ( 'NONE',  ( 0.000000000000000000, 0.000000000000000000, 0.000000000000000000 ) ) ;
#97 = APPROVAL_PERSON_ORGANIZATION ( #60, #160, #44 ) ;
#98 = MANIFOLD_SOLID_BREP ( 'Boss-Extrude1', #6 ) ;
#99 = CYLINDRICAL_SURFACE ( 'NONE', #43, 25.00000000000000000 ) ;
#100 = FACE_OUTER_BOUND ( 'NONE', #38, .T. ) ;
#101 = AXIS2_PLACEMENT_3D ( 'NONE', #128, #166, #124 ) ;
#102 = PERSON_AND_ORGANIZATION ( #80, #150 ) ;
#103 = PERSON_AND_ORGANIZATION ( #80, #150 ) ;
#104 = CC_DESIGN_PERSON_AND_ORGANIZATION_ASSIGNMENT ( #102, #34, ( #119 ) ) ;
#105 =( GEOMETRIC_REPRESENTATION_CONTEXT ( 3 ) GLOBAL_UNCERTAINTY_ASSIGNED_CONTEXT ( ( #109 ) ) GLOBAL_UNIT_ASSIGNED_CONTEXT ( ( #29, #4, #54 ) ) REPRESENTATION_CONTEXT ( 'NONE', 'WORKASPACE' ) );
#106 = APPROVAL_ROLE ( '' ) ;
#107 = ORIENTED_EDGE ( 'NONE', *, *, #83, .T. ) ;
#108 = APPROVAL_PERSON_ORGANIZATION ( #65, #71, #106 ) ;
#109 = UNCERTAINTY_MEASURE_WITH_UNIT (LENGTH_MEASURE( 1.000000000000000082E-05 ), #29, 'distance_accuracy_value', 'NONE');
#110 = VERTEX_POINT ( 'NONE', #39 ) ;
#111 = APPROVAL_PERSON_ORGANIZATION ( #129, #134, #78 ) ;
#112 = DIRECTION ( 'NONE',  ( 1.000000000000000000, 0.000000000000000000, -0.000000000000000000 ) ) ;
#113 = VECTOR ( 'NONE', #42, 1000.000000000000000 ) ;
#114 = FACE_OUTER_BOUND ( 'NONE', #26, .T. ) ;
#115 = APPLICATION_PROTOCOL_DEFINITION ( 'international standard', 'config_control_design', 1994, #167 ) ;
#116 = PERSON_AND_ORGANIZATION_ROLE ( 'design_owner' ) ;
#117 = EDGE_CURVE ( 'NONE', #161, #24, #57, .T. ) ;
#118 = DATE_AND_TIME ( #76, #148 ) ;
#119 = PRODUCT_DEFINITION_FORMATION_WITH_SPECIFIED_SOURCE ( 'ANY', '', #91, .NOT_KNOWN. ) ;
#120 = APPROVAL_STATUS ( 'not_yet_approved' ) ;
#121 = ORIENTED_EDGE ( 'NONE', *, *, #40, .T. ) ;
#122 = CC_DESIGN_APPROVAL ( #160, ( #175 ) ) ;
#123 = CARTESIAN_POINT ( 'NONE',  ( 0.000000000000000000, 0.000000000000000000, 0.5000000000000000000 ) ) ;
#124 = DIRECTION ( 'NONE',  ( 1.000000000000000000, 0.000000000000000000, -0.000000000000000000 ) ) ;
#125 = LINE ( 'NONE', #127, #35 ) ;
#126 = ADVANCED_FACE ( 'NONE', ( #114 ), #17, .F. ) ;
#127 = CARTESIAN_POINT ( 'NONE',  ( -25.00000000000000000, 0.000000000000000000, 0.5000000000000000000 ) ) ;
#128 = CARTESIAN_POINT ( 'NONE',  ( 0.000000000000000000, 0.000000000000000000, -0.5000000000000000000 ) ) ;
#129 = PERSON_AND_ORGANIZATION ( #80, #150 ) ;
#130 = CC_DESIGN_DATE_AND_TIME_ASSIGNMENT ( #9, #18, ( #175 ) ) ;
#131 = DATE_AND_TIME ( #63, #173 ) ;
#132 = CALENDAR_DATE ( 2022, 7, 6 ) ;
#133 = COORDINATED_UNIVERSAL_TIME_OFFSET ( 5, 0, .BEHIND. ) ;
#134 = APPROVAL ( #46, 'UNSPECIFIED' ) ;
#135 = CC_DESIGN_APPROVAL ( #134, ( #119 ) ) ;
#136 = EDGE_LOOP ( 'NONE', ( #94, #2, #107, #121 ) ) ;
#137 = EDGE_LOOP ( 'NONE', ( #68, #93, #66, #13 ) ) ;
#138 = DESIGN_CONTEXT ( 'detailed design', #159, 'design' ) ;
#139 = DIRECTION ( 'NONE',  ( 1.000000000000000000, 0.000000000000000000, 0.000000000000000000 ) ) ;
#140 = LOCAL_TIME ( 14, 31, 36.00000000000000000, #21 ) ;
#141 = CYLINDRICAL_SURFACE ( 'NONE', #14, 25.00000000000000000 ) ;
#142 = CARTESIAN_POINT ( 'NONE',  ( 25.00000000000000000, 3.061616997868383043E-15, -0.5000000000000000000 ) ) ;
#143 = CARTESIAN_POINT ( 'NONE',  ( 0.000000000000000000, 0.000000000000000000, -0.5000000000000000000 ) ) ;
#144 = PERSON_AND_ORGANIZATION_ROLE ( 'design_supplier' ) ;
#145 = PERSON_AND_ORGANIZATION_ROLE ( 'classification_officer' ) ;
#146 = CC_DESIGN_PERSON_AND_ORGANIZATION_ASSIGNMENT ( #89, #116, ( #91 ) ) ;
#147 = DIRECTION ( 'NONE',  ( 1.000000000000000000, 0.000000000000000000, 0.000000000000000000 ) ) ;
#148 = LOCAL_TIME ( 14, 31, 36.00000000000000000, #19 ) ;
#149 = VERTEX_POINT ( 'NONE', #41 ) ;
#150 = ORGANIZATION ( 'UNSPECIFIED', 'UNSPECIFIED', '' ) ;
#151 = FACE_OUTER_BOUND ( 'NONE', #136, .T. ) ;
#152 = CARTESIAN_POINT ( 'NONE',  ( 0.000000000000000000, 0.000000000000000000, 0.5000000000000000000 ) ) ;
#153 = ORIENTED_EDGE ( 'NONE', *, *, #36, .T. ) ;
#154 = DIRECTION ( 'NONE',  ( 0.000000000000000000, 0.000000000000000000, 1.000000000000000000 ) ) ;
#155 = DIRECTION ( 'NONE',  ( 0.000000000000000000, 0.000000000000000000, 1.000000000000000000 ) ) ;
#156 = COORDINATED_UNIVERSAL_TIME_OFFSET ( 5, 0, .BEHIND. ) ;
#157 = APPROVAL_DATE_TIME ( #172, #134 ) ;
#158 = AXIS2_PLACEMENT_3D ( 'NONE', #95, #154, #74 ) ;
#159 = APPLICATION_CONTEXT ( 'configuration controlled 3d designs of mechanical parts and assemblies' ) ;
#160 = APPROVAL ( #33, 'UNSPECIFIED' ) ;
#161 = VERTEX_POINT ( 'NONE', #169 ) ;
#162 = AXIS2_PLACEMENT_3D ( 'NONE', #123, #15, #70 ) ;
#163 = ORIENTED_EDGE ( 'NONE', *, *, #40, .F. ) ;
#164 = CC_DESIGN_PERSON_AND_ORGANIZATION_ASSIGNMENT ( #103, #61, ( #175 ) ) ;
#165 = DIRECTION ( 'NONE',  ( 0.000000000000000000, 0.000000000000000000, 1.000000000000000000 ) ) ;
#166 = DIRECTION ( 'NONE',  ( 0.000000000000000000, 0.000000000000000000, 1.000000000000000000 ) ) ;
#167 = APPLICATION_CONTEXT ( 'configuration controlled 3d designs of mechanical parts and assemblies' ) ;
#168 = CC_DESIGN_PERSON_AND_ORGANIZATION_ASSIGNMENT ( #174, #144, ( #119 ) ) ;
#169 = CARTESIAN_POINT ( 'NONE',  ( 25.00000000000000000, 3.061616997868383043E-15, 0.5000000000000000000 ) ) ;
#170 = APPROVAL_DATE_TIME ( #47, #71 ) ;
#171 = DATE_TIME_ROLE ( 'classification_date' ) ;
#172 = DATE_AND_TIME ( #90, #64 ) ;
#173 = LOCAL_TIME ( 14, 31, 36.00000000000000000, #156 ) ;
#174 = PERSON_AND_ORGANIZATION ( #80, #150 ) ;
#175 = PRODUCT_DEFINITION ( 'UNKNOWN', '', #119, #138 ) ;
ENDSEC;
END-ISO-10303-21;
