ISO-10303-21;
HEADER;
FILE_DESCRIPTION (( 'STEP AP203' ),
    '1' );
FILE_NAME ('Web Model 64402MX_41028.step',
    '2017-10-30T13:09:02',
    ( '' ),
    ( '' ),
    'SwSTEP 2.0',
    'SolidWorks 2016',
    '' );
FILE_SCHEMA (( 'CONFIG_CONTROL_DESIGN' ));
ENDSEC;

DATA;
#1 = DIRECTION ( 'NONE',  ( -1.387778780781445700E-016, 1.000000000000000000, 0.0000000000000000000 ) ) ;
#2 = PERSON_AND_ORGANIZATION ( #28, #86 ) ;
#3 = APPROVAL_ROLE ( '' ) ;
#4 = EDGE_CURVE ( 'NONE', #213, #83, #142, .T. ) ;
#5 = DATE_TIME_ROLE ( 'classification_date' ) ;
#6 = EDGE_LOOP ( 'NONE', ( #233, #191, #165, #207 ) ) ;
#7 = APPROVAL ( #48, 'UNSPECIFIED' ) ;
#8 = PRODUCT ( 'Web Model 64402MX_41028', 'Web Model 64402MX_41028', '', ( #120 ) ) ;
#9 = CALENDAR_DATE ( 2017, 30, 10 ) ;
#10 = VECTOR ( 'NONE', #79, 1000.000000000000000 ) ;
#11 = VECTOR ( 'NONE', #17, 1000.000000000000000 ) ;
#12 = ORIENTED_EDGE ( 'NONE', *, *, #175, .F. ) ;
#13 = FACE_OUTER_BOUND ( 'NONE', #152, .T. ) ;
#14 = VERTEX_POINT ( 'NONE', #147 ) ;
#15 = EDGE_CURVE ( 'NONE', #77, #105, #55, .T. ) ;
#16 = ADVANCED_FACE ( 'NONE', ( #194 ), #132, .F. ) ;
#17 = DIRECTION ( 'NONE',  ( -0.0000000000000000000, -0.0000000000000000000, -1.000000000000000000 ) ) ;
#18 = DIRECTION ( 'NONE',  ( 0.0000000000000000000, 0.0000000000000000000, 1.000000000000000000 ) ) ;
#19 = PLANE ( 'NONE',  #209 ) ;
#20 = EDGE_CURVE ( 'NONE', #14, #83, #225, .T. ) ;
#21 = PERSON_AND_ORGANIZATION_ROLE ( 'design_supplier' ) ;
#22 = ORIENTED_EDGE ( 'NONE', *, *, #20, .T. ) ;
#23 = CARTESIAN_POINT ( 'NONE',  ( 12.49999999999999800, -12.49999999999999600, 4.750000000000000000 ) ) ;
#24 = CC_DESIGN_APPROVAL ( #234, ( #59 ) ) ;
#25 = APPROVAL_PERSON_ORGANIZATION ( #82, #7, #3 ) ;
#26 = DATE_TIME_ROLE ( 'creation_date' ) ;
#27 = COORDINATED_UNIVERSAL_TIME_OFFSET ( 5, 0, .BEHIND. ) ;
#28 = PERSON ( 'UNSPECIFIED', 'UNSPECIFIED', 'UNSPECIFIED', ('UNSPECIFIED'), ('UNSPECIFIED'), ('UNSPECIFIED') ) ;
#29 = LINE ( 'NONE', #183, #167 ) ;
#30 = DIRECTION ( 'NONE',  ( 1.387778780781445700E-016, -1.000000000000000000, 0.0000000000000000000 ) ) ;
#31 = SHAPE_DEFINITION_REPRESENTATION ( #104, #229 ) ;
#32 = CC_DESIGN_PERSON_AND_ORGANIZATION_ASSIGNMENT ( #2, #21, ( #102 ) ) ;
#33 = ADVANCED_FACE ( 'NONE', ( #13 ), #219, .F. ) ;
#34 = ORIENTED_EDGE ( 'NONE', *, *, #210, .F. ) ;
#35 = VERTEX_POINT ( 'NONE', #227 ) ;
#36 = CARTESIAN_POINT ( 'NONE',  ( -12.50000000000000200, -12.50000000000000000, -4.750000000000000000 ) ) ;
#37 = CARTESIAN_POINT ( 'NONE',  ( 12.49999999999999800, -12.49999999999999600, 4.750000000000000000 ) ) ;
#38 = APPROVAL_DATE_TIME ( #99, #234 ) ;
#39 = ORIENTED_EDGE ( 'NONE', *, *, #71, .T. ) ;
#40 = APPLICATION_CONTEXT ( 'configuration controlled 3d designs of mechanical parts and assemblies' ) ;
#41 = CARTESIAN_POINT ( 'NONE',  ( -12.50000000000000200, -12.50000000000000000, 4.750000000000000000 ) ) ;
#42 = DIRECTION ( 'NONE',  ( 0.0000000000000000000, -0.0000000000000000000, 1.000000000000000000 ) ) ;
#43 = LINE ( 'NONE', #37, #124 ) ;
#44 = MANIFOLD_SOLID_BREP ( 'Boss-Extrude1', #73 ) ;
#45 = VECTOR ( 'NONE', #180, 1000.000000000000000 ) ;
#46 = SECURITY_CLASSIFICATION_LEVEL ( 'unclassified' ) ;
#47 = PLANE ( 'NONE',  #215 ) ;
#48 = APPROVAL_STATUS ( 'not_yet_approved' ) ;
#49 = AXIS2_PLACEMENT_3D ( 'NONE', #198, #42, #78 ) ;
#50 = CARTESIAN_POINT ( 'NONE',  ( 12.49999999999999800, 12.50000000000000400, 4.750000000000000000 ) ) ;
#51 = VECTOR ( 'NONE', #57, 1000.000000000000000 ) ;
#52 = DATE_AND_TIME ( #211, #68 ) ;
#53 = EDGE_CURVE ( 'NONE', #14, #77, #106, .T. ) ;
#54 = ORIENTED_EDGE ( 'NONE', *, *, #53, .F. ) ;
#55 = LINE ( 'NONE', #94, #179 ) ;
#56 = CARTESIAN_POINT ( 'NONE',  ( 12.49999999999999800, -12.49999999999999600, 4.750000000000000000 ) ) ;
#57 = DIRECTION ( 'NONE',  ( -0.0000000000000000000, -0.0000000000000000000, -1.000000000000000000 ) ) ;
#58 = DIRECTION ( 'NONE',  ( 1.000000000000000000, 1.387778780781445700E-016, -0.0000000000000000000 ) ) ;
#59 = SECURITY_CLASSIFICATION ( '', '', #46 ) ;
#60 = LOCAL_TIME ( 9, 9, 2.000000000000000000, #111 ) ;
#61 = CARTESIAN_POINT ( 'NONE',  ( 0.0000000000000000000, 0.0000000000000000000, 0.0000000000000000000 ) ) ;
#62 = EDGE_CURVE ( 'NONE', #35, #213, #43, .T. ) ;
#63 = PLANE ( 'NONE',  #171 ) ;
#64 = CARTESIAN_POINT ( 'NONE',  ( 12.49999999999999800, 12.50000000000000400, -4.750000000000000000 ) ) ;
#65 = CC_DESIGN_SECURITY_CLASSIFICATION ( #59, ( #102 ) ) ;
#66 = EDGE_LOOP ( 'NONE', ( #39, #201, #54, #22 ) ) ;
#67 = PERSON_AND_ORGANIZATION_ROLE ( 'classification_officer' ) ;
#68 = LOCAL_TIME ( 9, 9, 2.000000000000000000, #27 ) ;
#69 = EDGE_CURVE ( 'NONE', #77, #153, #29, .T. ) ;
#70 = FACE_OUTER_BOUND ( 'NONE', #200, .T. ) ;
#71 = EDGE_CURVE ( 'NONE', #83, #105, #202, .T. ) ;
#72 = PERSON_AND_ORGANIZATION ( #28, #86 ) ;
#73 = CLOSED_SHELL ( 'NONE', ( #33, #193, #92, #16, #196, #217 ) ) ;
#74 = ORIENTED_EDGE ( 'NONE', *, *, #231, .F. ) ;
#75 = DIRECTION ( 'NONE',  ( 0.0000000000000000000, 0.0000000000000000000, 1.000000000000000000 ) ) ;
#76 = PERSON_AND_ORGANIZATION ( #28, #86 ) ;
#77 = VERTEX_POINT ( 'NONE', #203 ) ;
#78 = DIRECTION ( 'NONE',  ( 1.000000000000000000, 0.0000000000000000000, -0.0000000000000000000 ) ) ;
#79 = DIRECTION ( 'NONE',  ( -1.000000000000000000, -1.387778780781445700E-016, 0.0000000000000000000 ) ) ;
#80 = DIRECTION ( 'NONE',  ( 0.0000000000000000000, 1.000000000000000000, 0.0000000000000000000 ) ) ;
#81 = DIRECTION ( 'NONE',  ( -0.0000000000000000000, -0.0000000000000000000, -1.000000000000000000 ) ) ;
#82 = PERSON_AND_ORGANIZATION ( #28, #86 ) ;
#83 = VERTEX_POINT ( 'NONE', #64 ) ;
#84 = CC_DESIGN_PERSON_AND_ORGANIZATION_ASSIGNMENT ( #188, #67, ( #59 ) ) ;
#85 = EDGE_CURVE ( 'NONE', #35, #14, #187, .T. ) ;
#86 = ORGANIZATION ( 'UNSPECIFIED', 'UNSPECIFIED', '' ) ;
#87 = ORIENTED_EDGE ( 'NONE', *, *, #210, .T. ) ;
#88 = ORIENTED_EDGE ( 'NONE', *, *, #175, .T. ) ;
#90 = CARTESIAN_POINT ( 'NONE',  ( 12.49999999999999800, -12.49999999999999600, -4.750000000000000000 ) ) ;
#89 = COORDINATED_UNIVERSAL_TIME_OFFSET ( 5, 0, .BEHIND. ) ;
#91 = ORIENTED_EDGE ( 'NONE', *, *, #62, .T. ) ;
#92 = ADVANCED_FACE ( 'NONE', ( #189 ), #47, .F. ) ;
#93 = APPROVAL_DATE_TIME ( #164, #7 ) ;
#94 = CARTESIAN_POINT ( 'NONE',  ( -12.50000000000000200, 12.50000000000000000, 4.750000000000000000 ) ) ;
#95 = CARTESIAN_POINT ( 'NONE',  ( 0.0000000000000000000, 0.0000000000000000000, -4.750000000000000000 ) ) ;
#96 = CARTESIAN_POINT ( 'NONE',  ( 12.49999999999999800, -12.49999999999999600, -4.750000000000000000 ) ) ;
#97 = CARTESIAN_POINT ( 'NONE',  ( -12.50000000000000200, -12.50000000000000000, -4.750000000000000000 ) ) ;
#98 = ORIENTED_EDGE ( 'NONE', *, *, #156, .F. ) ;
#99 = DATE_AND_TIME ( #133, #127 ) ;
#100 = LINE ( 'NONE', #112, #11 ) ;
#101 = DIRECTION ( 'NONE',  ( -0.0000000000000000000, -1.000000000000000000, -0.0000000000000000000 ) ) ;
#102 = PRODUCT_DEFINITION_FORMATION_WITH_SPECIFIED_SOURCE ( 'ANY', '', #8, .NOT_KNOWN. ) ;
#103 = PRODUCT_DEFINITION ( 'UNKNOWN', '', #102, #161 ) ;
#104 = PRODUCT_DEFINITION_SHAPE ( 'NONE', 'NONE',  #103 ) ;
#105 = VERTEX_POINT ( 'NONE', #184 ) ;
#106 = LINE ( 'NONE', #50, #10 ) ;
#107 = CC_DESIGN_DATE_AND_TIME_ASSIGNMENT ( #52, #26, ( #103 ) ) ;
#108 = EDGE_LOOP ( 'NONE', ( #206, #117, #144, #91 ) ) ;
#109 = DIRECTION ( 'NONE',  ( 0.0000000000000000000, -0.0000000000000000000, 1.000000000000000000 ) ) ;
#110 = APPLICATION_PROTOCOL_DEFINITION ( 'international standard', 'config_control_design', 1994, #237 ) ;
#111 = COORDINATED_UNIVERSAL_TIME_OFFSET ( 5, 0, .BEHIND. ) ;
#112 = CARTESIAN_POINT ( 'NONE',  ( -12.50000000000000200, -12.50000000000000000, 4.750000000000000000 ) ) ;
#113 = AXIS2_PLACEMENT_3D ( 'NONE', #122, #30, #155 ) ;
#114 = DIRECTION ( 'NONE',  ( -0.0000000000000000000, -0.0000000000000000000, -1.000000000000000000 ) ) ;
#115 = CALENDAR_DATE ( 2017, 30, 10 ) ;
#116 = CC_DESIGN_APPROVAL ( #221, ( #103 ) ) ;
#117 = ORIENTED_EDGE ( 'NONE', *, *, #20, .F. ) ;
#118 = PERSON_AND_ORGANIZATION_ROLE ( 'design_owner' ) ;
#119 = APPROVAL_PERSON_ORGANIZATION ( #174, #234, #148 ) ;
#120 = MECHANICAL_CONTEXT ( 'NONE', #237, 'mechanical' ) ;
#121 = CC_DESIGN_DATE_AND_TIME_ASSIGNMENT ( #176, #5, ( #59 ) ) ;
#122 = CARTESIAN_POINT ( 'NONE',  ( 12.49999999999999800, 12.50000000000000400, 4.750000000000000000 ) ) ;
#123 = DIRECTION ( 'NONE',  ( -0.0000000000000000000, -1.000000000000000000, -0.0000000000000000000 ) ) ;
#124 = VECTOR ( 'NONE', #114, 1000.000000000000000 ) ;
#125 =( LENGTH_UNIT ( ) NAMED_UNIT ( * ) SI_UNIT ( .MILLI., .METRE. ) );
#126 = DIRECTION ( 'NONE',  ( 1.000000000000000000, 0.0000000000000000000, 0.0000000000000000000 ) ) ;
#127 = LOCAL_TIME ( 9, 9, 2.000000000000000000, #89 ) ;
#128 = DIRECTION ( 'NONE',  ( -1.000000000000000000, -1.387778780781445700E-016, 0.0000000000000000000 ) ) ;
#129 = PERSON_AND_ORGANIZATION ( #28, #86 ) ;
#130 = LOCAL_TIME ( 9, 9, 2.000000000000000000, #224 ) ;
#131 = ORIENTED_EDGE ( 'NONE', *, *, #15, .T. ) ;
#132 = PLANE ( 'NONE',  #113 ) ;
#133 = CALENDAR_DATE ( 2017, 30, 10 ) ;
#134 = CARTESIAN_POINT ( 'NONE',  ( 12.49999999999999800, -12.49999999999999600, 4.750000000000000000 ) ) ;
#135 = CC_DESIGN_APPROVAL ( #7, ( #102 ) ) ;
#136 = DIRECTION ( 'NONE',  ( 1.000000000000000000, 0.0000000000000000000, -0.0000000000000000000 ) ) ;
#137 = DIRECTION ( 'NONE',  ( -1.000000000000000000, -1.387778780781445700E-016, 0.0000000000000000000 ) ) ;
#138 = LINE ( 'NONE', #56, #45 ) ;
#139 = CARTESIAN_POINT ( 'NONE',  ( -12.50000000000000200, -12.50000000000000000, 4.750000000000000000 ) ) ;
#140 = PLANE ( 'NONE',  #49 ) ;
#141 = CARTESIAN_POINT ( 'NONE',  ( 12.49999999999999800, 12.50000000000000400, -4.750000000000000000 ) ) ;
#142 = LINE ( 'NONE', #90, #226 ) ;
#143 = AXIS2_PLACEMENT_3D ( 'NONE', #139, #126, #220 ) ;
#144 = ORIENTED_EDGE ( 'NONE', *, *, #85, .F. ) ;
#145 = LINE ( 'NONE', #97, #154 ) ;
#146 = APPROVAL_ROLE ( '' ) ;
#147 = CARTESIAN_POINT ( 'NONE',  ( 12.49999999999999800, 12.50000000000000400, 4.750000000000000000 ) ) ;
#148 = APPROVAL_ROLE ( '' ) ;
#149 = AXIS2_PLACEMENT_3D ( 'NONE', #61, #75, #163 ) ;
#150 = VECTOR ( 'NONE', #58, 1000.000000000000000 ) ;
#151 = CALENDAR_DATE ( 2017, 30, 10 ) ;
#152 = EDGE_LOOP ( 'NONE', ( #88, #98, #236, #131 ) ) ;
#153 = VERTEX_POINT ( 'NONE', #41 ) ;
#154 = VECTOR ( 'NONE', #123, 1000.000000000000000 ) ;
#155 = DIRECTION ( 'NONE',  ( 1.000000000000000000, 1.387778780781445700E-016, 0.0000000000000000000 ) ) ;
#156 = EDGE_CURVE ( 'NONE', #153, #216, #100, .T. ) ;
#157 = APPLICATION_PROTOCOL_DEFINITION ( 'international standard', 'config_control_design', 1994, #40 ) ;
#158 = ORIENTED_EDGE ( 'NONE', *, *, #4, .F. ) ;
#159 = DIRECTION ( 'NONE',  ( -1.000000000000000000, 0.0000000000000000000, 0.0000000000000000000 ) ) ;
#160 = CC_DESIGN_PERSON_AND_ORGANIZATION_ASSIGNMENT ( #199, #118, ( #8 ) ) ;
#161 = DESIGN_CONTEXT ( 'detailed design', #40, 'design' ) ;
#162 = LINE ( 'NONE', #96, #150 ) ;
#163 = DIRECTION ( 'NONE',  ( 1.000000000000000000, 0.0000000000000000000, 0.0000000000000000000 ) ) ;
#164 = DATE_AND_TIME ( #151, #192 ) ;
#165 = ORIENTED_EDGE ( 'NONE', *, *, #85, .T. ) ;
#166 = FACE_OUTER_BOUND ( 'NONE', #190, .T. ) ;
#167 = VECTOR ( 'NONE', #101, 1000.000000000000000 ) ;
#168 =( NAMED_UNIT ( * ) SI_UNIT ( $, .STERADIAN. ) SOLID_ANGLE_UNIT ( ) );
#169 = CARTESIAN_POINT ( 'NONE',  ( 12.49999999999999800, -12.49999999999999600, 4.750000000000000000 ) ) ;
#170 = PRODUCT_RELATED_PRODUCT_CATEGORY ( 'detail', '', ( #8 ) ) ;
#171 = AXIS2_PLACEMENT_3D ( 'NONE', #95, #109, #136 ) ;
#172 = APPROVAL_STATUS ( 'not_yet_approved' ) ;
#173 = DATE_AND_TIME ( #9, #60 ) ;
#174 = PERSON_AND_ORGANIZATION ( #28, #86 ) ;
#175 = EDGE_CURVE ( 'NONE', #105, #216, #145, .T. ) ;
#176 = DATE_AND_TIME ( #115, #130 ) ;
#177 = ORIENTED_EDGE ( 'NONE', *, *, #62, .F. ) ;
#178 = CARTESIAN_POINT ( 'NONE',  ( 12.49999999999999800, -12.49999999999999600, -4.750000000000000000 ) ) ;
#179 = VECTOR ( 'NONE', #81, 1000.000000000000000 ) ;
#180 = DIRECTION ( 'NONE',  ( 1.000000000000000000, 1.387778780781445700E-016, -0.0000000000000000000 ) ) ;
#181 = CARTESIAN_POINT ( 'NONE',  ( 12.49999999999999800, 12.50000000000000400, 4.750000000000000000 ) ) ;
#182 = APPROVAL_STATUS ( 'not_yet_approved' ) ;
#183 = CARTESIAN_POINT ( 'NONE',  ( -12.50000000000000200, -12.50000000000000000, 4.750000000000000000 ) ) ;
#184 = CARTESIAN_POINT ( 'NONE',  ( -12.50000000000000200, 12.50000000000000000, -4.750000000000000000 ) ) ;
#185 = VECTOR ( 'NONE', #80, 1000.000000000000000 ) ;
#186 = PERSON_AND_ORGANIZATION_ROLE ( 'creator' ) ;
#187 = LINE ( 'NONE', #23, #185 ) ;
#188 = PERSON_AND_ORGANIZATION ( #28, #86 ) ;
#189 = FACE_OUTER_BOUND ( 'NONE', #108, .T. ) ;
#190 = EDGE_LOOP ( 'NONE', ( #87, #177, #74, #197 ) ) ;
#191 = ORIENTED_EDGE ( 'NONE', *, *, #231, .T. ) ;
#192 = LOCAL_TIME ( 9, 9, 2.000000000000000000, #212 ) ;
#193 = ADVANCED_FACE ( 'NONE', ( #166 ), #19, .F. ) ;
#194 = FACE_OUTER_BOUND ( 'NONE', #66, .T. ) ;
#195 =( NAMED_UNIT ( * ) PLANE_ANGLE_UNIT ( ) SI_UNIT ( $, .RADIAN. ) );
#196 = ADVANCED_FACE ( 'NONE', ( #214 ), #140, .T. ) ;
#197 = ORIENTED_EDGE ( 'NONE', *, *, #156, .T. ) ;
#198 = CARTESIAN_POINT ( 'NONE',  ( 0.0000000000000000000, 0.0000000000000000000, 4.750000000000000000 ) ) ;
#199 = PERSON_AND_ORGANIZATION ( #28, #86 ) ;
#200 = EDGE_LOOP ( 'NONE', ( #12, #222, #158, #34 ) ) ;
#201 = ORIENTED_EDGE ( 'NONE', *, *, #15, .F. ) ;
#202 = LINE ( 'NONE', #141, #208 ) ;
#203 = CARTESIAN_POINT ( 'NONE',  ( -12.50000000000000200, 12.50000000000000000, 4.750000000000000000 ) ) ;
#204 = APPROVAL_PERSON_ORGANIZATION ( #76, #221, #146 ) ;
#205 = APPROVAL_DATE_TIME ( #173, #221 ) ;
#206 = ORIENTED_EDGE ( 'NONE', *, *, #4, .T. ) ;
#207 = ORIENTED_EDGE ( 'NONE', *, *, #53, .T. ) ;
#208 = VECTOR ( 'NONE', #128, 1000.000000000000000 ) ;
#209 = AXIS2_PLACEMENT_3D ( 'NONE', #134, #1, #137 ) ;
#210 = EDGE_CURVE ( 'NONE', #216, #213, #162, .T. ) ;
#211 = CALENDAR_DATE ( 2017, 30, 10 ) ;
#212 = COORDINATED_UNIVERSAL_TIME_OFFSET ( 5, 0, .BEHIND. ) ;
#213 = VERTEX_POINT ( 'NONE', #178 ) ;
#214 = FACE_OUTER_BOUND ( 'NONE', #6, .T. ) ;
#215 = AXIS2_PLACEMENT_3D ( 'NONE', #169, #159, #18 ) ;
#216 = VERTEX_POINT ( 'NONE', #36 ) ;
#217 = ADVANCED_FACE ( 'NONE', ( #70 ), #63, .F. ) ;
#218 = CC_DESIGN_PERSON_AND_ORGANIZATION_ASSIGNMENT ( #129, #186, ( #102 ) ) ;
#219 = PLANE ( 'NONE',  #143 ) ;
#220 = DIRECTION ( 'NONE',  ( 0.0000000000000000000, 0.0000000000000000000, -1.000000000000000000 ) ) ;
#221 = APPROVAL ( #182, 'UNSPECIFIED' ) ;
#222 = ORIENTED_EDGE ( 'NONE', *, *, #71, .F. ) ;
#223 = PERSON_AND_ORGANIZATION_ROLE ( 'creator' ) ;
#224 = COORDINATED_UNIVERSAL_TIME_OFFSET ( 5, 0, .BEHIND. ) ;
#225 = LINE ( 'NONE', #181, #51 ) ;
#226 = VECTOR ( 'NONE', #230, 1000.000000000000000 ) ;
#227 = CARTESIAN_POINT ( 'NONE',  ( 12.49999999999999800, -12.49999999999999600, 4.750000000000000000 ) ) ;
#228 =( GEOMETRIC_REPRESENTATION_CONTEXT ( 3 ) GLOBAL_UNCERTAINTY_ASSIGNED_CONTEXT ( ( #232 ) ) GLOBAL_UNIT_ASSIGNED_CONTEXT ( ( #125, #195, #168 ) ) REPRESENTATION_CONTEXT ( 'NONE', 'WORKASPACE' ) );
#229 = ADVANCED_BREP_SHAPE_REPRESENTATION ( 'Web Model 64402MX_41028', ( #44, #149 ), #228 ) ;
#230 = DIRECTION ( 'NONE',  ( 0.0000000000000000000, 1.000000000000000000, 0.0000000000000000000 ) ) ;
#231 = EDGE_CURVE ( 'NONE', #153, #35, #138, .T. ) ;
#232 = UNCERTAINTY_MEASURE_WITH_UNIT (LENGTH_MEASURE( 1.000000000000000100E-005 ), #125, 'distance_accuracy_value', 'NONE');
#233 = ORIENTED_EDGE ( 'NONE', *, *, #69, .T. ) ;
#234 = APPROVAL ( #172, 'UNSPECIFIED' ) ;
#235 = CC_DESIGN_PERSON_AND_ORGANIZATION_ASSIGNMENT ( #72, #223, ( #103 ) ) ;
#236 = ORIENTED_EDGE ( 'NONE', *, *, #69, .F. ) ;
#237 = APPLICATION_CONTEXT ( 'configuration controlled 3d designs of mechanical parts and assemblies' ) ;
ENDSEC;
END-ISO-10303-21;
